» » »

Five Months Tabs (ver.2)

Artists:  A B C D E F G H I J K L M N O P Q R S T U V W X Y Z # 

Five Months Tabs (ver.2)

Parkway Drive
Rating:
0/5 (0 votes)

Tabs too difficult? Try these video lessons and learn fast.
                this solo is based on another full tab but im pretty sure a few notes were off so here tis


---------------------13--------15b-15-13b-12---|
------15------13--------13-15------------------|
-12br----12br----12b---------------------------|
-----------------------------------------------|
-----------------------------------------------|
-----------------------------------------------|

tapping part

-T13p10-T13p10-T13p10-T13p10-T13p10-T13p10-T13p10-T13p10---|
-----------------------------------------------------------|
-----------------------------------------------------------|
-----------------------------------------------------------|
-----------------------------------------------------------|
-----------------------------------------------------------|

-T17p13-T17p13-T17p13-T17p13-T15p12-T15p12-T15p12-T15p12---|
-----------------------------------------------------------|
-----------------------------------------------------------|
-----------------------------------------------------------|
-----------------------------------------------------------|
-----------------------------------------------------------|

-T12p8-T12p8-T12p8-T12p8-T12p8-T12p8-T12p8-T12p8---|
---------------------------------------------------|
---------------------------------------------------|
---------------------------------------------------|
---------------------------------------------------|
---------------------------------------------------|

-13-15-13-15-13-15-13-12-10---------|
------------------------------------|
------------------------------------|
------------------------------------|
------------------------------------|
------------------------------------|

-17p13----17p13----17-----15p12----15p12----15----|
-------15-------15----15--------13-------13----13-|
--------------------------------------------------|
--------------------------------------------------|
--------------------------------------------------|
--------------------------------------------------|

-17-13-13-18-13-13-17-13-13-18-13-13-20-13-13-13---|
---------------------------------------------------|
---------------------------------------------------|
---------------------------------------------------|
---------------------------------------------------|
---------------------------------------------------|

-17p13----17p13----17-----15p12----15p12----15----|
-------15-------15----15--------13-------13----13-|
--------------------------------------------------|
--------------------------------------------------|
--------------------------------------------------|
--------------------------------------------------|

-13p12----15p12----13-----13bfull-bend--12~----------|
-------13-------13----13-----------------------------|
-----------------------------------------------------|
-----------------------------------------------------|
-----------------------------------------------------|
-----------------------------------------------------|
            
Tabs too difficult? Try these video lessons and learn fast.




comments powered by Disqus
↑ Back to top | Tablatures and chords are parodies/interpretations of the original songs. You may use it for private study, scholarship, research or language learning purposes only