>
 >
Feed Them To The Pigs

Feed Them To The Pigs Guitar Tabs

Parkway Drive - Feed Them To The Pigs chords, tabs, tablatures, lyrics

Guitar lessons | Add/correct | Request | Top 50 tabs Artists:  A B C D E F G H I J K L M N O P Q R S T U V W X Y Z 0-9

Feed Them To The Pigs Guitar Tabs – Parkway Drive

CD, Sheet music, Poster

Do you like Feed Them To The Pigs? Share with your friends now
Bass TabsBass Tabs v2TabsTabs v2
PARKWAY DRIVE - FEED THEM TO THE PIGS

Without a doubt my favourite song from this album. Enjoy :)

Fans of Parkway Drive would be interested in my side project songs. Have a listen and send a friend request!

Legend:
~ Vibrato
s Slide
p Pull-off
h Hammer-On

Tuning: Drop A#

INTRO/VERSE RIFF
0:02
C |-----------------------------------|
G |-----------------------------------|
F#|-9s10s9---7------------------------|
A#|-----------------------------------|
F#|-7s8-s7---5------------------------|
A#|--------0----0-000-0-000-0-000-000-|

C |---------------------------------|
G |---------------------------------|
F#|-9s10s9---7----------------------|
A#|---------------------------------|
F#|-7s8-s7---5----------------------|
A#|--------0----0-000-8~~5~~10~~7~~-|

INTRO/VERSE RIFF ENDING
0:19
C |---------------------------|---------------------------|
G |---------------------------|---------------------------|
F#|---------------------------|---------------------------|
A#|---------------------------|---------------------------|
F#|--------------5~~---7~~3~~-|--------------5~~---7~~3~~-|
A#|-8~~5~~10~~7~~---8~~-------|-8~~5~~10~~7~~---8~~-------|

C |-----------------------------------------|
G |-----------------------------------------|
F#|-----------------------------------------|
A#|-----------------------------------------|
F#|-----------------------------------------|
A#|-5-8-5-8-7-10-7-10-8-12-8-12-10-14-10-14-|

C |-----------------------------------------|
G |-----------------------------------------|
F#|-----------------------------------------|
A#|-----------------------------------------|
F#|-5-8-5-8-7-10-7-10-8-12-8-12-10-14-10-14-|
A#|-5-8-5-8-7-10-7-10-8-12-8-12-10-14-10-14-|


BREAKDOWN
0:30
C |--------------------------------------------------------------|
G |--------------------------------------------------------------|
F#|--------------------------------------------------------------|
A#|--------------------------------------------2-----------------|
F#|-0--------------0-------------0-------------0--3--2--5--3--2--|
A#|-0---0--00--00--0---00--00--000---0--00--00----3--2--5--3--2--|

BREAKDOWN ENDING
0:52
C |--------------------------------------------------------------|
G |--------------------------------------------------------------|
F#|--------------------------------------------------------------|
A#|--------------------------------------------2-----------------|
F#|-0------------------------------------------0--3--2--5--3--2--|
A#|-0---0--00--00------00--00--00----0--00--00----3--2--5--3--2--|

0:58
C |-----------------------------|
G |-----------------------------|
F#|-------------7---------------|
A#|-------------7---------------|
F#|-0-----------5---------------|
A#|-0-----------0-------x\\\\\\-|

BRIDGE
1:02
C |--------------------------------|----------------------------------|
G |--------------------------------|----------------------------------|
F#|--------------------------------|----------------------------------|
A#|--------------------------------|----------------------------------|
F#|-----5---5---8---8---7---7---3--|-----5---5---10---8---7---7h8p7s3-|
A#|-0-0---0---0---0---0---0---0----|-0-0---0---0----0---0---0---------|

C |--------------------------------|-----------------------------------|
G |--------------------------------|-----------------------------------|
F#|--------------------------------|-----------------------------------|
A#|--------------------------------|-------------7---------------------|
F#|-----5---5---8---8---7---7---3--|-----5---5--------10---8---7h8h10--|
A#|-0-0---0---0---0---0---0---0----|-0-0---0---0----0----0---0---------|

BRIDGE HARMONY RIFF 
(PLAYED TWICE,  WITH FIRST LINE OF ABOVE RIFF TWICE)
1:11
C |------------------------------------|
G |------------------------------------|
F#|------------------------------------|
A#|------------------------------------|
F#|-----8---8---12---12---10---10---7--|
A#|-0-0---0---0----0----0----0----0----|

C |---------------------------------------|
G |---------------------------------------|
F#|---------------------------------------|
A#|-------------8-------------------------|
F#|-----8---8-------12---10---10s12s10s7--|
A#|-0-0---0---0---0----0----0-------------|

VERSE 2
1:20
C |-----------------------------------|
G |-----------------------------------|
F#|-9s10s9---7------------------------|
A#|-----------------------------------|
F#|-7s8-s7---5------------------------|
A#|--------0----0-000-0-000-0-000-000-|

C |---------------------------------|
G |---------------------------------|
F#|-9s10s9---7----------------------|
A#|---------------------------------|
F#|-7s8-s7---5----------------------|
A#|--------0----0-000-8~~5~~10~~7~~-|

VERSE 2 HARMONY RIFF
1:40
C |-------------------------------------|
G |-------------------------------------|
F#|-12s14s12---10-----------------------|
A#|-------------------------------------|
F#|-10s12s10---8------------------------|
A#|----------0----0-000-0-000-0-000-000-|

C |-----------------------------------|
G |-----------------------------------|
F#|-12s14s12---10---------------------|
A#|-----------------------------------|
F#|-10s12s10---8----------------------|
A#|----------0----0-000-8~~5~~10~~7~~-|


VERSE 2 RIFF ENDING
1:48
C |------------------------------|
G |------------------------------|
F#|------------------------------|
A#|------------------------------|
F#|--------------5~~---7~~3~~----|
A#|-8~~5~~10~~7~~---8~~----------|

C |-----------------------------------------|
G |-----------------------------------------|
F#|-----------------------------------------|
A#|-----------------------------------------|
F#|-----------------------------------------|
A#|-5-8-5-8-7-10-7-10-8-12-8-12-10-14-10-14-|

C |------------------------------|
G |------------------------------|
F#|------------------------------|
A#|------------------------------|
F#|--------------5~~---7~~3~~----|
A#|-8~~5~~10~~7~~---8~~----------|

C |-----------------------------------------|
G |-----------------------------------------|
F#|-----------------------------------------|
A#|-----------------------------------------|
F#|-5-8-5-8-7-10-7-10-8-12-8-12-10-14-10-14-|
A#|-5-8-5-8-7-10-7-10-8-12-8-12-10-14-10-14-|

BREAKDOWN 2
1:59
C |--------------------------------------------------------------|
G |--------------------------------------------------------------|
F#|--------------------------------------------------------------|
A#|--------------------------------------------2-----------------|
F#|-0------------------------------------------0--3--2--5--3--2--|
A#|-0---0--00--00------00--00--00----0--00--00----3--2--5--3--2--|





Comments


Popular Parkway Drive tabs & chords
Romance Is Dead Bass Tabs
Carrion Drum Tabs
Dont Close Your Eyes 1 Tabs
Emotional Breakdown Tabs
Flesh Bone And Weakness Intro Tabs
Guns For Show Knives For A Pro Tabs
Home Is For The Heartless 4 Tabs
Horizons 2 Tabs
Pressures Tabs
Sirens Song 1 Tabs


Song lyrics



↑ Back to top | Tablatures and chords are parodies/interpretations of the original songs. You may use it for private study, scholarship, research or language learning purposes only
© 2014 AZChords.com Contact us | Privacy policy | DMCA | Add/correct tabs | Request tabs | Top 50 tabs