» » »

Dead Man's Chest Tabs (ver.1)

Artists:  A B C D E F G H I J K L M N O P Q R S T U V W X Y Z # 

Dead Man's Chest Tabs (ver.1)

Parkway Drive
Rating:
0/5 (0 votes)

Hard to play? Try these video lessons and learn fast.
                Parkway Drive
Horizons


Noticed that the verses are incorrect on the other versions and some of the rhythym so i 
to produce my own version.

Tuning: Drop Bb
Drop B tuned (standard pwd tuning) half a step down.
(A# F A# D# G C)
(Bb F Bb Eb G C)


 /  Slide Up
 \  Slide Down
 ~  Let ring
 p  Pull-Off
 v  Vibrato
 *  Palm Mute


Intro

   C |--------------------------------------------|
   G |--------------------------------------------|
   D#|--------------------------------------------|
   A#|--------------------------------------------|
   F |-0-1-0-4-0-3-1-3----------------------------|
   A#|-0-1-0-4-0-3-1-3----------------------------|

Chorus (x2)

   C |--------------------------------------------------------------------|
   G |--------------------------------------------------------------------|
   D#|--------------------------------------------------------------------|
   A#|--------------------------------------------------------------------|
   F |-0-0-0-0----------0-0-0-0----------0-0-0-0----------0-1-0-4-0-3-1-3-|
   A#|-0-0-0-0-00-00-0--0-0-0-0-00-00-0--0-0-0-0-00-00-0--0-1-0-4-0-3-1-3-|
       * * * *          * * * *          * * * *


   C |-------------------|
   G |-------------------|
   D#|-------------------|
   A#|-------------------|
   F |-0-0-0-0-----------|
   A#|-0-0-0-0-----------|
       * * * *
Chorus (Slightly changed) x 2

   C |--------------------------------------------------------------------|
   G |--------------------------------------------------------------------|
   D#|--------------------------------------------------------------------|
   A#|-------------------------11-11-1------------------------------------|
   F |-0-0-0-0-----------0-0-0-33-33-3--0-0-0-0---------0-1-0-4-0-3-1-3---|
   A#|-0-0-0-0-00-00-0---0-0-0----------0-0-0-0-00-00-0-0-1-0-4-0-3-1-3---|
       * * * *           * * *          * * * *

   C |--------------------------------|
   G |--------------------------------|
   D#|--------------------------------|
   A#|-0~-----------0~----------------|
   F |-0~-----------0~----------------|
   A#|-0~-----------0~------Pickscr*pe|


Fast Hammer ons and pull offs (verse)


   C |-----------------------------------------------------|
   G |-----------------------------------------------------|
   D#|-----------------------------------------------------|
   A#|-----------------------------------------------------|
   F |-0--5h8p5h8p5----7h10p7h10p7---3h7p3h7p3---5h8p5h8p5-|
   A#|-0------------0-0------------0-----------0-----------|
                    * *            *           *
   C |-----------------------------------------------------|
   G |-----------------------------------------------------|
   D#|-----------------------------------------------------|
   A#|-----------------------------------------------------|
   F |-0--5h8p5h8p5----7h10p7h10p7---3h7p3h7p3---5h8p5h8p5-|
   A#|-0------------0-0------------0-----------0-----------|
                    * *            *           *
   C |--------------------------------------------------------|
   G |--------------------------------------------------------|
   D#|--------------------------------------------------------|
   A#|--------------------------------------------------------|
   F |-5~--5h8p5h8p5----7h10p7h10p7---3h7p3h7p3---5h8p5h8p5---|
   A#|-5~------------0-0------------0-----------0-------------|
                    * *            *           *
   C |--------------------------------------------------------|
   G |--------------------------------------------------------|
   D#|--------------------------------------------------------|
   A#|--------------------------------------------------------|
   F |-8~--5h8p5h8p5----7h10p7h10p7---3h7p3h7p3---5h8p5h8p5---|
   A#|-8~------------0-0------------0-----------0-------------|
                    * *            *           *

Verse 2

                                  Strum chords losely, Up/down strum rhythm
 C |------------------------------|  |------------------------------------|
 G |------------------------------|  |------------------------------------|
 D#|3-----------------------------|  |3-----------------------------------|
 A#|--5-------5-------000-000-0000|  |--5-------5----------8-------10-----|
 F |------------------000-000-0000|  |---------------------8-------10-----|
 A#|-----8-7v----8-5v-000-000-0000|x3|-----8-7v----8/10---10-(x3)--12-(x3-|
                        *** *** ****
                                            Change in tempo for this bar.
   C |------------------------------|   |-----------------------------|
   G |------------------------------|   |-----------------------------|
   D#|3-----------------------------|   |3----------------------------|
   A#|--5-------5-------0-0-0--0-0-0|   |--5---------5----------------|
   F |------------------0-0-0--0-0-0|   |-------------------5~-3~--0~-|
   A#|-----8-7v----8-5v-0-0-0--0-0-0|x3 |------8--7v-----8--5~-3~--0~-|
                        * * *  * * *

Verse ending

   C |------------------------------------------|
   G |------------------------------------------|
   D#|------------------------------------------|
   A#|------------------------------------------|
   F |-0-0-0-0----------------------------------|
   A#|-0-0-0-0-00-00-0--------------------------|
       * * * *

Chorus x 1

   C |--------------------------------------------------------------------|
   G |--------------------------------------------------------------------|
   D#|--------------------------------------------------------------------|
   A#|--------------------------------------------------------------------|
   F |-0-0-0-0----------0-0-0-0----------0-0-0-0----------0-1-0-4-0-3-1-3-|
   A#|-0-0-0-0-00-00-0--0-0-0-0-00-00-0--0-0-0-0-00-00-0--0-1-0-4-0-3-1-3-|
       * * * *          * * * *          * * * *

Chorus (Slightly changed) x 1

   C |--------------------------------------------------------------------|
   G |--------------------------------------------------------------------|
   D#|--------------------------------------------------------------------|
   A#|--------------------------11-11-1-----------------------------------|
   F |-0-0-0-0------------0-0-0-33-33-3--0-0-0-0----------0-1-0-4-0-3-1-3-|
   A#|-0-0-0-0-00-00-0----0-0-0----------0-0-0-0-00-00-0--0-1-0-4-0-3-1-3-|
       * * * *            * * *          * * * *
Breakdown

   C |-------------------------------------------------------|
   G |-------------------------------------------------------|
   D#|-------------------------------------------------------|
   A#|--------------------------------------------1~---------|
   F |-0-0-0-0-----00-00-00-----0000000-----0-0-0-1~---------|
   A#|-0-0-0-0-----00-00-00-----0000000-----0-0-0-1~---------|x2
       * * * *     ** ** **     *******     * * *
   C |-------------------------|
   G |-------------------------|
   D#|-------------------------|
   A#|--1~---------------------|
   F |--1~---------------------|
   A#|--1~---------------------|

Outro x 6

   C |---------------------------------------------------------------------|
   G |---------------------------------------------------------------------|
   D#|---------------------------------------------------------------------|
   A#|---------------------------11-11-1---------------------------11-11-1-|
   F |-0-0-0-0-0-0-0-0-0-0-0-0-0-33-33-3--0-0-0-0----------0-0-0-0-33-33-3-|
   A#|-0-0-0-0-0-0-0-0-0-0-0-0-0----------0-0-0-0-00-00-0--0-0-0-0---------|
       * * * * * * * * * * * * *          * * * *          * * * *

Other Guitarist in the background on 2nd set of outro (let each note ring out)

      C |-----------------------------------------|
      G |-----4-------6---4----6--4-----------4---|
      D#|-7-------7---------7---------7---------7-|
      A#|-----------------------------------------|
      F |-----------------------------------------|
      A#|-----------------------------------------|

Not too much different than the other tabs, but
            
Hard to play? Try these video lessons and learn fast. | Correct




comments powered by Disqus
↑ Back to top | Tablatures and chords are parodies/interpretations of the original songs. You may use it for private study, scholarship, research or language learning purposes only