>
 >
Dead Dreams

Dead Dreams Bass Tabs

Parkway Drive - Dead Dreams chords, tabs, tablatures, lyrics

Guitar lessons | Add/correct | Request | Top 50 tabs Artists:  A B C D E F G H I J K L M N O P Q R S T U V W X Y Z 0-9

Dead Dreams Bass Tabs – Parkway Drive

CD, Sheet music, Poster

Do you like Dead Dreams? Share with your friends now
Bass TabsBass Tabs v2Tabs
                                  Dead Dreams                                   


                                                                   Parkway Drive



              E  E  H        Q               E  E   E  E  E   E  E   E   
E ||-------|----------------------|-------|-----------------------------|
B ||-------|----------------------|-------|-----------------------------|
F#||-------|----------------------|-------|-----------------------------|
B ||-------|--0-------------------|-------|--0--0--10--0--0--12--0--10--|


  E  E  E  E  E   E  E  E     E  E  E  E  E  E  E  E   
---------------------------|--------------------------|
---------------------------|--------------------------|
---------------------------|--------------------------|
--0--0--8--0--0--10--0--8--|--7--7--3--3--5--5--2--2--|


  E  E  E  E  E  E  E  E     E  E   E  E  E   E  E  E   
--------------------------|----------------------------|
--------------------------|----------------------------|
--------------------------|----------------------------|
--3--3--0--0--2--2--0--0--|--0--0--10--0--0--12--0--0--|


  E  E  E  E  E  E  Q       E  E  E  E  E  E  E  E     E  E  E  E  E  E  E  E   
-------------------------|--------------------------|--------------------------|
-------------------------|--------------------------|--------------------------|
--8--------7-------------|--------------------------|--------------------------|
-----0--0-----0--0-------|--0--0--2--2--3--3--2--2--|--5--5--3--3--2--2--0--0--|


  E  E   E  E  E   E  E   E     E  E  E  E  E   E  E  E   
-----------------------------|---------------------------|
-----------------------------|---------------------------|
-----------------------------|---------------------------|
--0--0--10--0--0--12--0--10--|--0--0--8--0--0--10--0--8--|


  E  E  E  E  E  E  E  E     E  E  E  E  E  E  E  E   
--------------------------|--------------------------|
--------------------------|--------------------------|
--------------------------|--------------------------|
--7--7--3--3--5--5--2--2--|--3--3--0--0--2--2--0--0--|


  E  E   E  E  E   E  E  E     E  E  E  E  H           E  E  H        Q     
----------------------------|-----------------------|----------------------|
----------------------------|-----------------------|----------------------|
----------------------------|--8--------5-----------|----------------------|
--0--0--10--0--0--12--0--0--|-----0--0--------------|--0--0--0--------L----|


  H        E  E  Q       E  E  H        Q       H        E  E  Q     
----------------------|----------------------|----------------------|
----------------------|----------------------|----------------------|
----------------------|----------------------|----------------------|
--L--------0--0--0----|--0--0--0--------L----|--L--------0--0--0----|


  E  E  H        Q       H        E  E  Q       E  E  H        Q     
----------------------|----------------------|----------------------|
----------------------|----------------------|----------------------|
----------------------|----------------------|----------------------|
--0--0--0--------L----|--L--------0--0--0----|--0--0--0--------L----|


  H        E  E  Q       E  E  H        Q       H        E  E  Q     
----------------------|----------------------|----------------------|
----------------------|----------------------|----------------------|
----------------------|----------------------|----------------------|
--L--------0--0--0----|--0--0--0--------L----|--L--------0--0--0----|


  E  E  H        Q       H        E  E  Q       E  E  H        Q     
----------------------|----------------------|----------------------|
----------------------|----------------------|----------------------|
----------------------|----------------------|----------------------|
--0--0--0--------L----|--L--------0--0--0----|--0--0--0--------L----|


  H        E  E  Q       E  E  H        Q       H        E  E  Q     
----------------------|----------------------|----------------------|
----------------------|----------------------|----------------------|
----------------------|----------------------|----------------------|
--L--------0--0--0----|--0--0--0--------L----|--L--------0--0--0----|


  PM                                                            
  E  E  H        Q                       E  E  Q    E  E  Q     
----------------------|-------|-------|------------------------|
----------------------|-------|-------|------------------------|
----------------------|-------|-------|------------------------|
--3-------------------|-------|-------|--6--6--L----1--1--L----|


  PM                                                              
  E  E  H        Q                       E  E  E  E  E  E  E  E   
----------------------|-------|-------|--------------------------|
----------------------|-------|-------|--------------------------|
----------------------|-------|-------|--------------------------|
--3-------------------|-------|-------|--6--6--6--6--1--1--1--1--|


  E  E  E  E  E  E  E  E     E  E  E  E  E  E  E  E   
--------------------------|--------------------------|
--------------------------|--------------------------|
--------------------------|--------------------------|
--3--3--3--3--3--3--3--3--|--3--3--3--3--3--3--3--3--|


  E  E  E  E  E  E  E  E     E  E  Q    E  E  Q       E  E  E  E  E  E  E  E   
--------------------------|------------------------|--------------------------|
--------------------------|------------------------|--------------------------|
--------------------------|------------------------|--------------------------|
--3--3--3--3--3--3--3--3--|--6--6--L----1--1--L----|--3--3--3--3--3--3--3--3--|


  E  E  E  E  E  E  E  E     E  E  E  E  E  E  E  E   
--------------------------|--------------------------|
--------------------------|--------------------------|
--------------------------|--------------------------|
--3--3--3--3--3--3--3--3--|--3--3--3--3--3--3--3--3--|


  E  E  E  E  E  E  E  E     E  E  E  E  E  E  E  E   
--------------------------|--------------------------|
--------------------------|--------------------------|
--------------------------|--------------------------|
--6--6--6--6--1--1--1--1--|--3--3--3--3--3--3--3--3--|


  E  E  E  E  E  E  E  E     E  E  E  E  E  E  E  E     E  E  Q    E  E  Q     
--------------------------|--------------------------|------------------------|
--------------------------|--------------------------|------------------------|
--------------------------|--------------------------|------------------------|
--3--3--3--3--3--3--3--3--|--3--3--3--3--3--3--3--3--|--6--6--L----1--1--L----|


  E  E  E  E  E  E  E  E     E  E  E  E  E  E  E  E   
--------------------------|--------------------------|
--------------------------|--------------------------|
--------------------------|--------------------------|
--3--3--3--3--3--3--3--3--|--3--3--3--3--3--3--3--3--|


  E  E  E  E  E  E  E  E     E  E  E  E  E  E  E  E   
--------------------------|--------------------------|
--------------------------|--------------------------|
--------------------------|--------------------------|
--3--3--3--3--3--3--3--3--|--6--6--6--6--1--1--1--1--|


  E  E  E  E  E  E  E  E     E  E  E  E  E  E  E  E   
--------------------------|--------------------------|
--------------------------|--------------------------|
--------------------------|--------------------------|
--3--3--3--3--3--3--3--3--|--3--3--3--3--3--3--3--3--|


  E  E  E  E  E  E  E  E     E  E  Q    E  E  Q       E  E  E  E  E  E  E  E   
--------------------------|------------------------|--------------------------|
--------------------------|------------------------|--------------------------|
--------------------------|------------------------|--------------------------|
--3--3--3--3--3--3--3--3--|--6--6--L----1--1--L----|--3--3--3--3--3--3--3--3--|


  E  E  E  E  E  E  E  E     E  E  E  E  E  E  E  E   
--------------------------|--------------------------|
--------------------------|--------------------------|
--------------------------|--------------------------|
--3--3--3--3--3--3--3--3--|--3--3--3--3--3--3--3--3--|


  E  E  E  E  E  E  E  E     W                   W                 
--------------------------|-------------------|-------------------|
--------------------------|-------------------|-------------------|
--------------------------|-------------------|-------------------|
--6--6--6--6--1--1--1--1--|--0----------------|--L----------------|


                                              PM     PM     PM     PM  
  W                   W                   S S E  S S E  S S E  S S E   
-------------------|-------------------|------------------------------|
-------------------|-------------------|------------------------------|
-------------------|-------------------|------------------------------|
--0----------------|--L----------------|--0-0-0--0-0-0--0-0-0--0-0-0--|


                                 PM     PM     PM     PM  
  E  E  E  E  E  E  E  E     S S E  S S E  S S E  S S E   
--------------------------|------------------------------|
--------------------------|------------------------------|
--------------------------|------------------------------|
--6--3--2--3--5--3--2--3--|--0-0-0--0-0-0--0-0-0--0-0-0--|


                                 PM     PM     PM     PM  
  E  E  E  E  E  E  E  E     S S E  S S E  S S E  S S E   
--------------------------|------------------------------|
--------------------------|------------------------------|
--------------------------|------------------------------|
--6--3--2--3--5--3--2--3--|--0-0-0--0-0-0--0-0-0--0-0-0--|


                                 PM     PM     PM     PM  
  E  E  E  E  E  E  E  E     S S E  S S E  S S E  S S E   
--------------------------|------------------------------|
--------------------------|------------------------------|
--------------------------|------------------------------|
--6--3--2--3--5--3--2--3--|--0-0-0--0-0-0--0-0-0--0-0-0--|


                             PM     PM     PM     PM  
  E  E  H        Q       S S E  S S E  S S E  S S E   
----------------------|------------------------------|
----------------------|------------------------------|
----------------------|------------------------------|
--6-------------------|--0-0-0--0-0-0--0-0-0--0-0-0--|


                                 PM     PM     PM     PM  
  E  E  E  E  E  E  E  E     S S E  S S E  S S E  S S E   
--------------------------|------------------------------|
--------------------------|------------------------------|
--------------------------|------------------------------|
--6--3--2--3--5--3--2--3--|--0-0-0--0-0-0--0-0-0--0-0-0--|


                                 PM     PM     PM     PM  
  E  E  E  E  E  E  E  E     S S E  S S E  S S E  S S E   
--------------------------|------------------------------|
--------------------------|------------------------------|
--------------------------|------------------------------|
--6--3--2--3--5--3--2--3--|--0-0-0--0-0-0--0-0-0--0-0-0--|


                                 PM     PM     PM     PM  
  E  E  E  E  E  E  E  E     S S E  S S E  S S E  S S E   
--------------------------|------------------------------|
--------------------------|------------------------------|
--------------------------|------------------------------|
--6--3--2--3--5--3--2--3--|--0-0-0--0-0-0--0-0-0--0-0-0--|


  E  E  E  E  E  E  E  E     Q    Q    Q    Q       E  E  E  E  E  E  E  E   
--------------------------|----------------------|--------------------------|
--------------------------|----------------------|--------------------------|
--------------------------|----------------------|--------------------------|
--6--3--2--3--5--3--2--3--|--0----0----0----0----|--6--3--2--3--5--3--2--3--|


  Q    Q    Q    Q       E  E  E  E  E  E  E  E     Q    Q    Q    Q     
----------------------|--------------------------|----------------------|
----------------------|--------------------------|----------------------|
----------------------|--------------------------|----------------------|
--0----0----0----0----|--6--3--2--3--5--3--2--3--|--0----0----0----0----|


  E  E  E  E  E  E  E  E     Q    Q    Q    Q       E  E  E  E  E  E  E  E   
--------------------------|----------------------|--------------------------|
--------------------------|----------------------|--------------------------|
--------------------------|----------------------|--------------------------|
--6--3--2--3--5--3--2--3--|--0----0----0----0----|--6--3--2--3--5--3--2--3--|


  E  E  E  E  E  E  E  E     W                   H        H         
--------------------------|-------------------|--------------------|
--------------------------|-------------------|--------------------|
--------------------------|-------------------|-----------1--------|
--6--3--2--3--5--3--2--3--|--0----------------|--L-----------------|


  W                   H        H           W                 
-------------------|--------------------|-------------------|
-------------------|--------------------|-------------------|
-------------------|-----------1--------|-------------------|
--0----------------|--L-----------------|--0----------------|


  H        H           W                   H        E   E  E   E   
--------------------|-------------------|-------------------------|
--------------------|-------------------|-------------------------|
-----------1--------|-------------------|-----------3s--5--5s--7--|
--L-----------------|--0----------------|--L----------------------|


  W                   H        E   E  E   E     W                 
-------------------|-------------------------|-------------------|
-------------------|-------------------------|-------------------|
-------------------|-----------3s--5--5s--7--|-------------------|
--0----------------|--L----------------------|--0----------------|


  H        E   E  E   E     E  E  E  E  E  E  E  E   
-------------------------|--------------------------|
-------------------------|--------------------------|
-----------3s--5--5s--7--|--------------------------|
--L----------------------|--0--0--0--0--0--0--0--0--|


  E  E  E  E  E   E  E   E     E  E  E  E  E  E  E  E   
----------------------------|--------------------------|
----------------------------|--------------------------|
--------------3s--5--5s--7--|--------------------------|
--0--0--0--0----------------|--0--0--0--0--0--0--0--0--|


  E  E  E  E  E   E  E   E     E  E  E  E  E  E  E  E   
----------------------------|--------------------------|
----------------------------|--------------------------|
--------------3s--5--5s--7--|--------------------------|
--0--0--0--0----------------|-----0--0--0-----0--0--0--|


  E  E  E  E  E   E  E   E     E  E  E  E  E  E  E  E   
----------------------------|--------------------------|
----------------------------|--------------------------|
--------------3s--5--5s--7--|--------------------------|
-----0--0--0----------------|-----0--0--0-----0--0--0--|


  E  E  E  E  E   E  E   E     E  E  E  E  E  E  E  E   
----------------------------|--------------------------|
----------------------------|--------------------------|
--------------3s--5--5s--7--|--------------------------|
-----0--0--0----------------|-----0--0--0-----0--0--0--|


  E  E  E  E  E   E  E   E     E  E  E  E  E  E  E  E   
----------------------------|--------------------------|
----------------------------|--------------------------|
--------------3s--5--5s--7--|--------------------------|
-----0--0--0----------------|-----0--0--0-----0--0--0--|


  E  E  E  E  E   E  E   E     E  E  H        E  E         
----------------------------|-----------------------|-----|
----------------------------|-----------------------|-----|
--------------3s--5--5s--7--|-----------------------|-----|
-----0--0--0----------------|--0--0-----------0--0--|-----|


  E  E  H        E  E           E  E  H        E  E         
-----------------------|-----|-----------------------|-----|
-----------------------|-----|-----------------------|-----|
-----------------------|-----|-----------------------|-----|
--0--0-----------0--0--|-----|--0--0-----------0--0--|-----|


  E  E  H        E  E           E  E  H        E  E         
-----------------------|-----|-----------------------|-----|
-----------------------|-----|-----------------------|-----|
-----------------------|-----|-----------------------|-----|
--0--0-----------0--0--|-----|--0--0-----------0--0--|-----|


  E  E  H        E  E           E  E  E  E  E  E  E  E   
-----------------------|-----|--------------------------|
-----------------------|-----|--------------------------|
-----------------------|-----|--------8--8--7--7--------|
--0--0-----------0--0--|-----|--0--0--------------0--0--|


  E  E  E  E  E  E  E  E     E  E  E  E  E  E  E  E   
--------------------------|--------------------------|
--------------------------|--------------------------|
--8--8--7--7--5--5--3--3--|--------8--8--7--7--------|
--------------------------|--0--0--------------0--0--|


  E  E  E  E  E  E  E  E     E  E  H        Q            
--------------------------|----------------------|-----||
--------------------------|----------------------|-----||
--8--8--7--7--5--5--3--3--|----------------------|-----||
--------------------------|--0--0----------------|-----||




Duration Legend
---------------
W - whole
H - half
Q - quarter
E - 8th
S - 16th
T - 32nd
X - 64th
. - note dotted
|-n-|  - n-tuplets


Tablature Legend
----------------
L - tied note
x - dead note
g - grace note
(n) - ghost note
> - accentuded note
NH - natural harmonic
AH - artificial harmonic
TH - tapped harmonic
SH - semi harmonic
PH - pitch harmonic
h - hammer on
p - pull off
b - bend
br - bendRelease
pb - preBend
pbr - preBendRelease
brb - bendReleaseBend
\n/ - tremolo bar dip
\n - tremolo bar dive
-/n - tremolo bar Release up
/n\ - tremolo bar inverted dip
/n - tremolo bar return
-\n - tremolo bar Release down
S - shift slide
s - legato slide
/ -  slide into from below or out of upwards
\ -  slide into from above or out of downwards
~ - vibrato
W - wide vibrato
tr - trill
TP - tremolo picking
T - tapping
S - slap
P - pop
< - fade in
^ - brush up
v - brush down





Comments


Popular Parkway Drive tabs & chords
Blackout 1 Tabs
Dark Days Tabs
Dead Dreams Tabs
Flesh Bone And Weakness Intro 1 Tabs
Home Is For The Heartless 1 Tabs
Romance Is Dead 2 Tabs
Samsara Tabs
Smoke Em If You Got Em Intro Tabs
Sparks Tabs
Wreckage 1 Tabs


Song lyrics



↑ Back to top | Tablatures and chords are parodies/interpretations of the original songs. You may use it for private study, scholarship, research or language learning purposes only
© 2014 AZChords.com Contact us | Privacy policy | DMCA | Add/correct tabs | Request tabs | Top 50 tabs