>
 >
Anasis Xenophontis

Anasis Xenophontis Bass Tabs

Parkway Drive - Anasis Xenophontis chords, tabs, tablatures, lyrics

Guitar lessons | Add/correct | Request | Top 50 tabs Artists:  A B C D E F G H I J K L M N O P Q R S T U V W X Y Z 0-9

Anasis Xenophontis Bass Tabs – Parkway Drive

CD, Sheet music, Poster

Do you like Anasis Xenophontis? Share with your friends now
Bass TabsTabs
Anasasis (Xenophontis)                              
Parkway Drive
Bass



                E  S S Q    E  S S E  S S    E  S S Q    E  S S E  S S  
E ||-------||-----------------------------|----------------------------|
B ||-------||*----------------------------|----------------------------|
F#||-------||*----------------------------|----------------------------|
B ||-------||---0--0-0-0----0--0-0-0--0-0-|--0--0-0-0----0--0-0-0--0-0-|


  E  S S Q    E  S S E  E     S S S S S S S S S S S S S S S S  
---------------------------|----------------------------------|
---------------------------|----------------------------------|
---------------------------|----------------------------------|
--0--0-0-0----0--0-0-0--0--|--3-3-3-3-3-3-3-3-7-7-7-7-7-7-7-7-|


  E  S S Q    E  S S E  S S    E  S S Q    E  S S Q     
----------------------------|--------------------------|
----------------------------|--------------------------|
----------------------------|--------------------------|
--0--0-0-0----0--0-0-0--0-0-|--0--0-0-0----0--0-0-0----|


  E  S S Q    E  S S E  E     S S S S S S S S S S S S S S S S            
---------------------------|-----------------------------------||-------|
---------------------------|----------------------------------*||-------|
---------------------------|----------------------------------*||-------|
--0--0-0-0----0--0-0-0--0--|--8-8-8-8-8-8-8-8-3-3-3-3-5-5-5-5--||-------|


-------|-------|-------|-------|-------|-------|-------|
-------|-------|-------|-------|-------|-------|-------|
-------|-------|-------|-------|-------|-------|-------|
-------|-------|-------|-------|-------|-------|-------|


  E  S S S S E  E  S S E  E     E  S S E  S S E  E  E  E   
-----------------------------|----------------------------|
-----------------------------|----------------------------|
-----------------------------|----------------------------|
--0--0-0-0-0-0-----0-0-0--0--|-----0-0-0--0-2-5--5--5--5--|


  E  S S S S E  E  S S E  E     E  S S E  S S E  E  E  E   
-----------------------------|----------------------------|
-----------------------------|----------------------------|
-----------------------------|----------------------------|
--0--0-0-0-0-0-----0-0-0--0--|-----0-0-0--0-2-7--7--7--7--|


  E  S S S S E  E  S S E  E     E  S S E  S S E  E  E  E   
-----------------------------|----------------------------|
-----------------------------|----------------------------|
-----------------------------|----------------------------|
--0--0-0-0-0-0-----0-0-0--0--|-----0-0-0--0-2-5--5--5--5--|


  E  S S S S E  E  S S E  E     E  S S E  S S E  E  E  E   
-----------------------------|----------------------------|
-----------------------------|----------------------------|
-----------------------------|----------------------------|
--0--0-0-0-0-0-----0-0-0--0--|-----0-0-0--0-2-7--7--7--7--|


  E  S S E  H        E     E  S S E  H        E     E  S S E  H        E   
------------------------|------------------------|------------------------|
------------------------|------------------------|------------------------|
------------------------|------------------------|------------------------|
--0--0-0-0--------------|--0--0-0-0--------------|--0--0-0-0-----------5--|


  E  E  E  Q    E  Q         E  S S E  Q    E  Q       E  S S E  Q    E  Q     
------------------------||--------------------------|-------------------------|
------------------------||*-------------------------|-------------------------|
------------------------||*-------------------------|-------------------------|
--L--3--2--3----2--0----||---0--0-0-0--0----2--3----|--0--0-0-0--0----2--3----|


  E  S S E  Q    E  E  E     E  E  E  Q    E  Q       
--------------------------|-------------------------||
--------------------------|------------------------*||
--------------------------|------------------------*||
--0--0-0-0--0----2--3--5--|--L--3--2--3----2--0-----||


  E  S S E  Q    E  E  E     E  E  E  Q    E  Q         E  S S E  Q    E  Q     
--------------------------|------------------------||--------------------------|
--------------------------|------------------------||*-------------------------|
--------------------------|------------------------||*-------------------------|
--0--0-0-0--0----2--3--5--|--L--3--2--3----2--0----||---0--0-0-0--0----2--3----|


  E  S S E  Q    E  Q       E  S S E  Q    E  E  E     E  E  E  Q    E  Q       
-------------------------|--------------------------|-------------------------||
-------------------------|--------------------------|------------------------*||
-------------------------|--------------------------|------------------------*||
--0--0-0-0--0----2--3----|--0--0-0-0--0----2--3--5--|--L--3--2--3----2--0-----||


  W                   W                   W                   W                 
-------------------|-------------------|-------------------|-------------------|
-------------------|-------------------|-------------------|-------------------|
-------------------|-------------------|-------------------|-------------------|
--0----------------|--L----------------|--0----------------|--L----------------|


  W                   W                   W                   W                 
-------------------|-------------------|-------------------|-------------------|
-------------------|-------------------|-------------------|-------------------|
-------------------|-------------------|-------------------|-------------------|
--0----------------|--L----------------|--0----------------|--L----------------|


  Q    E  E  E  E  E  E     E  E  E  E  E  E  E  E     Q    E  E  E  E  E  E   
-------------------------|--------------------------|-------------------------|
-------------------------|--------------------------|-------------------------|
-------------------------|--------------------------|-------------------------|
--0----3--7--2--5--0--2--|--3--5--2--3--5--2--3--0--|--L----3--7--2--5--0--2--|


  E  E  E  E  E  E  E  E     Q    E  E  E  E  E  E     E  E  E  E  E  E  E  E   
--------------------------|-------------------------|--------------------------|
--------------------------|-------------------------|--------------------------|
--------------------------|-------------------------|--------------------------|
--3--5--2--3--5--3--2--0--|--L----3--7--2--5--0--2--|--3--5--2--3--5--3--2--0--|


  Q    E  E  E  E  E  E     E  E  E  E  E  E  E  E   
-------------------------|--------------------------|
-------------------------|--------------------------|
-------------------------|--------------------------|
--L----3--7--2--5--0--2--|--3--5--2--3--5--3--2-----|


  H        H        H           W                 
-----------------------------|-------------------|
-----------------------------|-------------------|
-----------------------------|-------------------|
--0--------0--------0--------|--3----------------|


    E  S S Q    E  S S E  S S    E  S S Q    E  S S E  S S  
|-----------------------------|----------------------------|
|*----------------------------|----------------------------|
|*----------------------------|----------------------------|
|---0--0-0-0----0--0-0-0--0-0-|--0--0-0-0----0--0-0-0--0-0-|


  E  S S Q    E  S S E  E     S S S S S S S S S S S S S S S S  
---------------------------|----------------------------------|
---------------------------|----------------------------------|
---------------------------|----------------------------------|
--0--0-0-0----0--0-0-0--0--|--3-3-3-3-3-3-3-3-7-7-7-7-7-7-7-7-|


  E  S S Q    E  S S E  S S    E  S S Q    E  S S Q     
----------------------------|--------------------------|
----------------------------|--------------------------|
----------------------------|--------------------------|
--0--0-0-0----0--0-0-0--0-0-|--0--0-0-0----0--0-0-0----|


  E  S S Q    E  S S E  E     S S S S S S S S S S S S S S S S    
---------------------------|-----------------------------------||
---------------------------|----------------------------------*||
---------------------------|----------------------------------*||
--0--0-0-0----0--0-0-0--0--|--8-8-8-8-8-8-8-8-3-3-3-3-5-5-5-5--||


   E  S S E  Q    E  Q       E  S S E  Q    E  Q       E  S S E  Q    E  E  E   
--------------------------|-------------------------|--------------------------|
*-------------------------|-------------------------|--------------------------|
*-------------------------|-------------------------|--------------------------|
---0--0-0-0--0----2--3----|--0--0-0-0--0----2--3----|--0--0-0-0--0----2--3--5--|


  E  E  E  Q    E  Q         E  S S E  Q    E  E  E     E  E  E  Q    E  Q     
-------------------------||--------------------------|------------------------|
------------------------*||--------------------------|------------------------|
------------------------*||--------------------------|------------------------|
--L--3--2--3----2--0-----||--0--0-0-0--0----2--3--5--|--L--3--2--3----2--0----|


    E  S S E  Q    E  Q       E  S S E  Q    E  Q     
|--------------------------|-------------------------|
|*-------------------------|-------------------------|
|*-------------------------|-------------------------|
|---0--0-0-0--0----2--3----|--0--0-0-0--0----2--3----|


  E  S S E  Q    E  E  E     E  E  E  Q    E  Q       
--------------------------|-------------------------||
--------------------------|------------------------*||
--------------------------|------------------------*||
--0--0-0-0--0----2--3--5--|--L--3--2--3----2--0-----||


   E  S S S S E  E  S S E  E     E  S S E  S S E  E  E  E   
------------------------------|----------------------------|
*-----------------------------|----------------------------|
*-----------------------------|----------------------------|
---0--0-0-0-0-0-----0-0-0--0--|-----0-0-0--0-2-5--5--5--5--|


  E  S S S S E  E  S S E  E     E  S S E  S S E  E  E  E     
-----------------------------|-----------------------------||
-----------------------------|----------------------------*||
-----------------------------|----------------------------*||
--0--0-0-0-0-0-----0-0-0--0--|-----0-0-0--0-2-7--7--7--7---||


  E  S S E  S S E  E  E  E     E  S S S S E  E  E  S S E   
----------------------------|-----------------------------|
----------------------------|-----------------------------|
----------------------------|-----------------------------|
-----0-0-0--0-2-7--7--7--7--|--0--0-0-0-0-0-----0--0-0-0--|


  E  E  S S E  H           E  S S S S E  E  E  S S E     E  E  E  E  H         
------------------------|-----------------------------|-----------------------|
------------------------|-----------------------------|-----------------------|
------------------------|-----------------------------|-----------------------|
-----0--0-0-0-----------|--0--0-0-0-0-0-----0--0-0-0--|-----0--0--------------|


  E  S S S S E  E  E  S S E     E  E  S S E  H         
-----------------------------|------------------------|
-----------------------------|------------------------|
-----------------------------|------------------------|
--0--0-0-0-0-0-----0--0-0-0--|-----0--0-0-0-----------|


  E  S S S S E  E  E  S S E     W                                     
-----------------------------|-------------------|-------------------|
-----------------------------|-------------------|-------------------|
-----------------------------|-------------------|-------------------|
--0--0-0-0-0-0-----0--0-0-0--|-------------------|-------------------|


-------------------|-------------------|-------------------|-------------------|
-------------------|-------------------|-------------------|-------------------|
-------------------|-------------------|-------------------|-------------------|
-------------------|-------------------|-------------------|-------------------|


-------------------|-------------------|-------------------|-------------------|
-------------------|-------------------|-------------------|-------------------|
-------------------|-------------------|-------------------|-------------------|
-------------------|-------------------|-------------------|-------------------|


-------------------|-------------------|-------------------|-------------------|
-------------------|-------------------|-------------------|-------------------|
-------------------|-------------------|-------------------|-------------------|
-------------------|-------------------|-------------------|-------------------|


-------------------|-------------------|-------------------|
-------------------|-------------------|-------------------|
-------------------|-------------------|-------------------|
-------------------|-------------------|-------------------|


  Q    H.             
--------------------||
--------------------||
--------------------||
--0-----------------||




Duration Legend
---------------
W - whole
H - half
Q - quarter
E - 8th
S - 16th
T - 32nd
X - 64th
. - note dotted
|-n-|  - n-tuplets


Tablature Legend
----------------
L - tied note
x - dead note
g - grace note
(n) - ghost note
> - accentuded note
NH - natural harmonic
AH - artificial harmonic
TH - tapped harmonic
SH - semi harmonic
PH - pitch harmonic
h - hammer on
p - pull off
b - bend
br - bendRelease
pb - preBend
pbr - preBendRelease
brb - bendReleaseBend
\n/ - tremolo bar dip
\n - tremolo bar dive
-/n - tremolo bar Release up
/n\ - tremolo bar inverted dip
/n - tremolo bar return
-\n - tremolo bar Release down
S - shift slide
s - legato slide
/ -  slide into from below or out of upwards
\ -  slide into from above or out of downwards
~ - vibrato
W - wide vibrato
tr - trill
TP - tremolo picking
T - tapping
S - slap
P - pop
< - fade in
^ - brush up
v - brush down





Comments


Popular Parkway Drive tabs & chords
Dead Dreams 2 Bass Tabs
A Cold Day In Hell Tabs
Anasasis Xenophontis 1 Tabs
Anasasis Xenophontis Intro Tabs
Carrion 4 Tabs
Carrion 6 Tabs
Dark Days Tabs
Sleepwalker Intro Tabs
Smoke Em If You Got Em Intro Tabs
The River Tabs


Song lyrics



↑ Back to top | Tablatures and chords are parodies/interpretations of the original songs. You may use it for private study, scholarship, research or language learning purposes only
© 2014 AZChords.com Contact us | Privacy policy | DMCA | Add/correct tabs | Request tabs | Top 50 tabs