» » »

Parkway Drive, Alone Tabs (ver.4)

Artists:  A B C D E F G H I J K L M N O P Q R S T U V W X Y Z # 

Alone Tabs (ver.4)

Parkway Drive Tabs
 Rating:
3.6/5 (5 votes)
Alone lessons Tabs too difficult? Try these video lessons and learn fast
1
                (Intro)
Hey Guys love this song right now been trying to learn it for a while.
There was no intro tab for it so hears a look at my view on the intro.
I'm not sure if its exactly right but i think its more or less there.

Drop B:B F# B E G# C#

C#|------------------------------------------------------------------------|
G#|------------------------------------------------------------------------|
E|-------------------------------------------------------------------------|
B|-------------------------------------------------------------------------|
F#|-------5---5-----8----5----7-----8----7---5---3---3---7---3-7p8h7--5--7-|
B|-------------------------------------------------------------------------|



C#|------------------------------------------------------------------------|
G#|----------------------12------------------------------------------------|
E|-----------------------12------------------------------------------------|
B|-------------5----------0----------0-------------------------------------|
F#|---3-----3-------3-------5-----5------5----7-----5-------3------5-------|
B|-------------------------------------------------------------------------|

you play that four times and then the heavy bit comes in


Hope this helps you out and ROCK ON!!
            
Submit corrections

comments powered by Disqus
↑ Back to top | Parkway Drive Tabs for Alone. Lyrics for acoustic guitar and electric guitar. 1 Tablatures and chords are parodies/interpretations of the original songs. You may use it for private study, scholarship, research or language learning purposes only