» » »

Alone Tabs (ver.3)

Artists:  A B C D E F G H I J K L M N O P Q R S T U V W X Y Z # 

Alone Tabs (ver.3)

Parkway Drive
Rating:
0/5 (0 votes)
Tabs too difficult? Try these video lessons and learn fast.
                Parkway Drive

This is another simple song off Parkway's new album DEEP BLUE!
There is a lot of different riffs that come up everywhere and also
change slightly so I tried to structure it the best I can. I think 
the notes are about 99% correct so please comment for correctionsand don't forget to rate!
Drop B

Intro: clean x4
C#|----------0-----------------------------|
G#|------6-----6---6--------5---5h6p5---5--|
 E|--7-7---7-----7------5-5---5-------5----|
 B|----------------------------------------|
F#|----------------------------------------|
 B|----------------------------------------|

C#|----------7------------------0------|
G#|------5-----8---8--------3-----3----|
 E|--5-5---5-----5------2-2---2-----2--|  
 B|------------------------------------|
F#|------------------------------------|
 B|------------------------------------|
     on 4th time,  ^
     finish here   ^

Intro: distorted
C#|---------------------------------------------------------------|
G#|---------------------------------------------------------------|
 E|---------------------5-3-2-3--------------------9-------9------|
 B|--7-5------------5-3-----------7-5----------------10------10---|
F#|---------------------------------------------------------------|
 B|------0--00-0-0--------------------0--00-0-00---8-----10-------|
            .. . .                       .. . ..

C#|------------------------------------------------------------------------|
G#|------------------------------------------------------------------------|
 E|---------------------5-3-2-3--------------------------------------------|
 B|--7-5------------5-3-----------7-5-------------------7------------------|
F#|-------------------------------------------------------------------10---|
 B|------0--00-0-0--------------------0--00-0-00---8888---10101010-10----8-|
            .. . .                       .. . ..   ....   . . . .

Verse riff 1: x2
C#|--------------------------------------|
G#|--------------------------------------|
 E|------------------------9-------9-----|
 B|--------------------------10------10--|
F#|--7-0000-0-0000-0-00------------------|
 B|--7-0000-0-0000-0-00--8------10-------|
       ....   ....   ..

C#|----------------------------------|
G#|----------------------------------|
 E|----------------------------------|
 B|----------------------------------|
F#|--7-00-0--10-8-7--000000--7----5--|
 B|--7-00-0----------000000----10----|
       ..            ......

C#|---------------------------|
G#|---------------------------|
 E|---------------------------|
 B|-----------------------/7--|
F#|--7-0000-0-0000-0-00-7-----|
 B|--7-0000-0-0000-0-00-7-----|
       ....   ....   ..

C#|--------------------------|
G#|--------------------------|
 E|--------------------------|
 B|--------------------------|
F#|--0-0000-0-00--0-00-0-00--|
 B|--0-0000-0-00--0-00-0-00--|
       .... . ..  . .. . ..

Clean break: x2
C#|--8----------5------|
G#|----8----------6----|
 E|------5----------5--| 
 B|--------------------|
F#|--------------------|
 B|--------------------|

Verse riff 2: distorted x2
C#|----------0-----------------------------|
G#|------6-----6---6--------5---5h6p5---5--|
 E|--7-7---7-----7------5-5---5-------5----|
 B|----------------------------------------|
F#|----------------------------------------|
 B|----------------------------------------|

C#|----------7------------------0------|
G#|------5-----8---8--------3-----3----|
 E|--5-5---5-----5------2-2---2-----2--|  
 B|------------------------------------|
F#|------------------------------------|
 B|------------------------------------|

Verse riff 3: x2
C#|-------------------------------------------|
G#|-------------------------------------------|
 E|-------------------------------------------|
 B|--0--0-2-3--8----------3---------5---------|
F#|--0---------8--10-8-7--3--8-7-5--5--8-7-5--|
 B|--0---------8----------3---------5---------|

Repeat distorted intro riff: the end bit is replaced by this 
C#|-------------------------------|
G#|-------------------------------|
 E|-------------------------------|
 B|-------------------------------|
F#|--10101010101010101010-888888--|
 B|-------------------------------|
     . . . . . . . . . .  ......

Repeat verse riff 2: x4

Break:
C#|--------------------------------|
G#|--------------------------------|
 E|--------------------------------|
 B|------------7-------------------|
F#|--0~----------------------10----|
 B|--0~---8888---10101010-10----8--|
          ....    . . . .

Repeat verse riff 1: x2
Repeat clean intro: cutting off last chord section

Repeat distorted intro riff: x2 the end bit is replaced by this 
C#|-------------------------------|
G#|-------------------------------|
 E|-------------------------------|
 B|-------------------------------|
F#|--10101010101010101010-888888--|
 B|-------------------------------|
     . . . . . . . . . .  ......

Solo: sorry, I have no knmowledge of sweeping so I don't even know where to start.
C#|------------------------------|
G#|------------------------------|
 E|------------------------------|
 B|--0-----10-----8-----5--7--3--|
F#|--0-----10-----8-----5--7--3--|
 B|--0-----10-----8-----5--7--3--|

C#|-----------------------------|
G#|-----------------------------|
 E|-----------------------------|
 B|--5-----8---10---12--10---0--| (Not 100% about these chords,
F#|--5-----8---10---12--10---0--|  I just can't seem to hear them)
 B|--5-----8---10---12--10---0--|

Please rate and comment!
            
Tabs too difficult? Try these video lessons and learn fast.


comments powered by Disqus
↑ Back to top | Tablatures and chords are parodies/interpretations of the original songs. You may use it for private study, scholarship, research or language learning purposes only