>
 >
A Cold Day In Hell

A Cold Day In Hell Bass Tabs

Parkway Drive - A Cold Day In Hell chords, tabs, tablatures, lyrics

Guitar lessons | Add/correct | Request | Top 50 tabs Artists:  A B C D E F G H I J K L M N O P Q R S T U V W X Y Z 0-9

A Cold Day In Hell Bass Tabs – Parkway Drive

CD, Sheet music, Poster

Do you like A Cold Day In Hell? Share with your friends now
Bass TabsTabsTabs v2
Tuning: BF#BE

Intro
||---------------------|------------------------------|
||---------------------|------------------------------|
||---------------------|------------------------------|
||--0------------------|-(0)-------------2------------|

|--------------------|------------------------|
|--------------------|------------------------|
|--------------------|------------------------|
|-4------------------|-(4)--------------------|

|--------------------|------------------------------|
|--------------------|------------------------------|
|--------------------|------------------------------|
|-7------------------|-(7)-------------7------------|

|--------------------|---------------------------||
|--------------------|-------------------6--4----||
|--------------------|---------------------------||
|-2------------------|-(2)-----------------------||

Verse
|---------------------|-------------------------------------|
|---------------------|-7-7-7-7---------10-10-10-10---------|
|---------------------|---------8-8-8-8-------------7-7-7-7-|
|-0-0-0-0---0---0---0-|-------------------------------------|

|---------------------|-----------------|
|---------------------|---------5-7-----|
|---------------------|-0-5-7-8-----8-7-|
|-0-0-0-0---0---0---0-|-----------------|

|---------5---------|-------------------|
|-------------3---7-|---------5---------|
|-------------------|-------------3---7-|
|-3-3-3-3---3---3---|-3-3-3-3---3---3---|

|---------5---------|---------0h2p0h2p0----------|
|-------------3---7-|-------------------3p0h3p0--|
|-------------------|----------------------------|
|-3-3-3-3---3---3---|-3-3-3-3--------------------|

|---------------------|-------------------------------------|
|---------------------|-7-7-7-7---------10-10-10-10---------|
|---------------------|---------8-8-8-8-------------7-7-7-7-|
|-0-0-0-0---0---0---0-|-------------------------------------|

|---------------------|-2---0-2-0-------|
|---------------------|---3-------3-2---|
|---------------------|---------------3-|
|-0-0-0-0---0---0---0-|-----------------|

|---------------------|-------------------------------------|
|---------------------|-7-7-7-7---------10-10-10-10---------|
|---------------------|---------8-8-8-8-------------7-7-7-7-|
|-0-0-0-0---0---0---0-|-------------------------------------|

|---------------------|------------------|
|---------------------|---------5--7-----|
|---------------------|-0-5-7-8------8-7-|
|-0-0-0-0---0---0---0-|------------------|

|---------5---------|-------------------|
|-------------3---7-|---------5---------|
|-------------------|-------------3---7-|
|-3-3-3-3---3---3---|-3-3-3-3---3---3---|

|---------5---------|---------0h2p0h2p0----------|
|-------------3---7-|-------------------3p0-3p0--|
|-------------------|----------------------------|
|-3-3-3-3---3---3---|-3-3-3-3--------------------|

Chorus
|-------------------------|-------------------------------|
|-------------------------|-------------------------------|
|-------------------------|-------------------------------|
|-8-8-8-8-8-8-8-8-8-8-8-8-|-8-8-8-8-8-8-10-10-10-10-10-10-|

|-------------------------|----------------------------|
|-------------------------|----------------------------|
|-------------------------|----------------------------|
|-2-2-2-2-2-2-2-2-2-2-2-2-|-3-3-3-3-3-3-0-0-0-0-0-0----|

|-------------------------|-------------------------------|
|-------------------------|-------------------------------|
|-------------------------|-------------------------------|
|-8-8-8-8-8-8-8-8-8-8-8-8-|-8-8-8-8-8-8-10-10-10-10-10-10-|

|-------------------------|--------------------|
|-------------------------|--------------------|
|-------------------------|--------------------|
|-2-2-2-2-2-2-2-2-2-2-2-2-|-3-3-3-3-3-3-[3]----|

Verse 2
|---------------------|-------------------------------------|
|---------------------|-7-7-7-7---------10-10-10-10---------|
|---------------------|---------8-8-8-8-------------7-7-7-7-|
|-0-0-0-0---0---0---0-|-------------------------------------|

|---------------------|-2---0-2-0-------|
|---------------------|---3-------3-2---|
|---------------------|---------------3-|
|-0-0-0-0---0---0---0-|-----------------|

|---------------------|-------------------------------------|
|---------------------|-7-7-7-7---------10-10-10-10---------|
|---------------------|---------8-8-8-8-------------7-7-7-7-|
|-0-0-0-0---0---0---0-|-------------------------------------|

|---------------------|------------------|
|---------------------|---------5--7-----|
|---------------------|-0-5-7-8------8-7-|
|-0-0-0-0---0---0---0-|------------------|

|---------5---------|-------------------|
|-------------3---7-|---------5---------|
|-------------------|-------------3---7-|
|-3-3-3-3---3---3---|-3-3-3-3---3---3---|

|---------5---------|---------0h2p0h2p0----------|
|-------------3---7-|-------------------3p0h3p0--|
|-------------------|----------------------------|
|-3-3-3-3---3---3---|-3-3-3-3--------------------|

Chorus 2
||--------------------------|-------------------------------|
||--------------------------|-------------------------------|
||--------------------------|-------------------------------|
||--8-8-8-8-8-8-8-8-8-8-8-8-|-8-8-8-8-8-8-10-10-10-10-10-10-|

|-------------------------|--------------------------||---|
|-------------------------|--------------------------||---|
|-------------------------|--------------------------||---|
|-2-2-2-2-2-2-2-2-2-2-2-2-|-3-3-3-3-3-3-0-0-0-0-0-0--||---|

|-------------------------|-------------------------------|
|-------------------------|-------------------------------|
|-------------------------|-------------------------------|
|-8-8-8-8-8-8-8-8-8-8-8-8-|-8-8-8-8-8-8-10-10-10-10-10-10-|

|-------------------------|----------------------------|
|-------------------------|----------------------------|
|-------------------------|----------------------------|
|-2-2-2-2-2-2-2-2-2-2-2-2-|-3-3-3-3-3-3-0-0-0-0-0-0----|

|-------------------------|-------------------------------|
|-------------------------|-------------------------------|
|-------------------------|-------------------------------|
|-8-8-8-8-8-8-8-8-8-8-8-8-|-8-8-8-8-8-8-10-10-10-10-10-10-|

|-------------------------|--------------------------|
|-------------------------|--------------------------|
|-------------------------|--------------------------|
|-2-2-2-2-2-2-2-2-2-2-2-2-|-3-3-3-3-3-3-0-0-0--------|

Breakdown
||--------------------------|---------------0h2p0-------------|
||--------------------------|-3p2p0---0h2h3-------3p2-2h3p2---|
||--------------------------|-------3-----------------------3-|
||--0-0-0-0-0-0-0-0-0-0-0-0-|---------------------------------|

||--------------------------|---------------------------------|
||--------------------------|---------------------------------|
||--------------------------|---------------------------------|
||--0-0-0-0-0-0-0-0-0-0-0-0-|---------------------------------|

|-------------------------|-----------------|
|-------------------------|-----------------|
|-------------------------|-----------------|
|-0-0-0-0-0-0-0-0-0-0-0-0-|-----------------|

|-------------------------|----------------0h2p0-------------|
|-------------------------|--3p2p0---0h2h3-------3p2-2h3p2---|
|-------------------------|--------3-----------------------3-|
|-0-0-0-0-0-0-0-0-0-0-0-0-|----------------------------------|

|-------------------------|----------------|
|-------------------------|----------------|
|-------------------------|----------------|
|-0-0-0-0-0-0-0-0-0-0-0-0-|----------------|

|-------------------------|----------------|
|-------------------------|----------------|
|-------------------------|----------------|
|-0-0-0-0-0-0-0-0-0-0-0-0-|----------------|

Bridge
|--------------------|------------------------------|
|--------------------|------------------------------|
|--------------------|------------------------------|
|-0------------------|-(0)---------------2----------|

|--------------------|--------------------------|
|--------------------|--------------------------|
|--------------------|--------------------------|
|-4------------------|-(4)----------------------|

|--------------------|------------------------------|
|--------------------|------------------------------|
|--------------------|------------------------------|
|-7------------------|-(7)---------------7----------|

|--------------------|--------------------------|
|--------------------|-------------------6--4---|
|--------------------|--------------------------|
|-2------------------|-(2)----------------------|

|----------------|-----------------|--------------|---------------|
|----------------|-----------------|--------------|---------------|
|----------------|-----------------|--------------|---------------|
|-0--------------|-(0)------2------|-4------------|-(4)-----------|

|-----------------|-------------------|-----------------|-----------------|
|-----------------|-------------------|-----------------|-----------6--4--|
|-----------------|-------------------|-----------------|-----------------|
|-7---------------|-(7)-------7-------|-2---------------|-(2)-------------|

Fast Bit
|---------------|-----------------|-------------------|-0h2p0-------------|
|---------------|-----------------|---------0h2p0-----|-------3p2---------|
|-------7---8---|-7---3---5---7---|-3---2---------3h5-|-----------3--5----|
|-0--0----0---0-|---0---0---0---0-|---0---0-----------|-------------------|

|---------------|-------------------|-------------------------|
|---------------|-------------------|---------3p0h3p0h3p0h3p0-|
|-------7---8---|-7---3---10---12---|-8---7-------------------|
|-0--0----0---0-|---0---0----0----0-|---0---0-----------------|

|-5p0h5p0h5p0h5p0h4p0h4p0h4p0h4p0----|
|------------------------------------|
|------------------------------------|
|------------------------------------|

|---------------|-----------------|-------------------|-0h2p0-----------|
|---------------|-----------------|---------0h2p0-----|-------3p2-------|
|-------7---8---|-7---3---5---7---|-3---2---------3h5-|-----------3--5--|
|-0--0----0---0-|---0---0---0---0-|---0---0-----------|-----------------|

|---------------|-------------------|
|---------------|-------------------|
|-------7---8---|-7---3---10---12---|
|-0--0----0---0-|---0---0----0----0-|

|-------------------------|-5p0h5p0h5p0h5p0h4p0h4p0h4p0h4p0-|
|---------3p0h3p0h3p0h3p0-|---------------------------------|
|-8---7-------------------|---------------------------------|
|---0---0-----------------|---------------------------------|

|------------------|-----------------|
|------------------|-----------------|
|----------7---8---|-7---3---5---7---|
|-0--0-------0---0-|---0---0---0---0-|

|-----------------------|-0h2p0-------------|
|-----------0h2p0-------|-------3p2---------|
|-3---2------------3h-5-|-----------3--5----|
|---0-----0-------------|-------------------|

|------------------|-------------------|
|------------------|-------------------|
|----------7---8---|-7---3---10---12---|
|-0--0-------0---0-|---0---0----0----0-|

|---------------------------|----------------------------------|
|---------------------------|-5p0h5p0h5p0h5p0h4p0h4p0h4p0h4p0--|
|-----------3p0h3p0h3p0h3p0-|----------------------------------|
|-8---7---------------------|----------------------------------|
|---0-----0-----------------|----------------------------------|

Outro
|----------|------------|----------|--------|
|----------|------------|----------|--------|
|----------|------------|----------|--------|
|-0--------|-(0)--------|-0--------|-(0)----|

|----------|------------|----------|--------|
|----------|------------|----------|--------|
|----------|------------|----------|--------|
|-0--------|-(0)--------|-0--------|-(0)----|

|--------------------|------------------|
|--------------------|------------------|
|--------------------|------------------|
|-0-0-0-0---0-0------|------------------|

|---------------------------------|---|
|---------------------------------|---|
|---------------------------------|---|
|-0-0-0-0---0-0---0-0-0-0---0-0---|---|

|----------------------------|-------------------|
|----------------------------|-------------------|
|----------------------------|-------------------|
|-0-0-0-0-0----0-0---0-0-0-0-|-0----0-0---0-0----|

|---------------------------------|----------|
|---------------------------------|----------|
|---------------------------------|----------|
|-0-0-0-0---0-0---0-0-0-0---0-0---|----------|

|----------------------------|-------|
|----------------------------|-------|
|----------------------------|-------|
|-0-0-0-0-0----0-0---0-0-0-0-|-0-----|

|---------------------------------|----------|
|---------------------------------|----------|
|---------------------------------|----------|
|-0-0-0-0---0-0---0-0-0-0---0-0---|----------|

|----------------------------|---------------------|
|----------------------------|---------------------|
|----------------------------|---------------------|
|-0-0-0-0-0----0-0---0-0-0-0-|-0----0-0---0-0------|

|---------------------------------|----------|
|---------------------------------|----------|
|---------------------------------|----------|
|-0-0-0-0---0-0---0-0-0-0---0-0---|----------|

|----------------------------|----------------------|
|----------------------------|----------------------|
|----------------------------|----------------------|
|-0-0-0-0-0----0-0---0-0-0-0-|-0----0-0---0-0---0-0-|





Comments


Popular Parkway Drive tabs & chords
Boneyards Tabs
Dead Mans Chest 2 Tabs
Hopeless Tabs
Moments In Oblivion Tabs
Romance Is Dead 2 Tabs
Sirens Song 2 Tabs
Sleight Of Hand Tabs
Smoke Em If You Got Em 4 Tabs
Wreckage 1 Tabs
Wreckage 2 Tabs


Song lyrics



↑ Back to top | Tablatures and chords are parodies/interpretations of the original songs. You may use it for private study, scholarship, research or language learning purposes only
© 2014 AZChords.com Contact us | Privacy policy | DMCA | Add/correct tabs | Request tabs | Top 50 tabs