» » »

Parketi, Na Site Radia Vo Svetot Chords (ver.1)

Artists:  A B C D E F G H I J K L M N O P Q R S T U V W X Y Z # 

Na Site Radia Vo Svetot Chords (ver.1)

Parketi Tabs
 Rating:
4/5 (4 votes)
Na Site Radia Vo Svetot lessons Tabs too difficult? Try these video lessons and learn fast
                LYRIC  BY : VLATKO HENDRIX


Parketi - Na site radia vo svetot



Intro



Gdur Bare

E--3-------------------------|
A--5-------------------------|    
D--5-------------------------|       
G--4----4-----4--------------|    X4
H--3-------3-----------------| 
E--3-------------------------|







G
Kako gulabi dva eden kraj drug
G          D
sto pravat gu gu gu guuu..
D            G
Jas te sakam najmnogu.

G                    
Kako mali deca veseli
G        D
sto peat La la la laaaa..
D              G
Ti ljubov ne si probala.

A                   C
So srebreno lance i srce na gradi
D         G
Kolku si ubava.
A                 C
Ti ubivas dosada, ispolnuvas zelbi
D     D  
Ti si zabavaa..


ReF:

G
Na site radia vo svetot go peev tvoeto ime
C       D              G
A ti mi velis zaboravi mee...


G
Na site radia vo svetot go peev tvoeto ime
C       D              G
A ti mi velis zaboravi mee...





E---------------------------------------------------------------------------------------------|
A---------------------------------------------------------------------------------------------|
D---------------------------------------------------------------------------------------------|
G---4---4-7-4---4---4-7-4---4---4-7-4---4---4-7-4---------------------------------------------|
H----------------------------------------------------/13-13-13-13-13---13/14-14-14-13-12-12-12|
E---------------------------------------------------------------------------------------------|

CC C...




G
Kako gulabi dva eden kraj drug
G          D
sto pravat gu gu gu guuu..
D            G
Jas te sakam najmnogu.

G                    
Kako mali deca veseli
G        D
sto peat La la la laaaa..
D              G
Ti ljubov ne si probala.

A                   C    
Te gledam, Kolku si ubava
     D          G 
koga noke ke se otskries.
A                    C   
Tebe malku ti treba, Tebe malku ti treba
D          D
Za da zaspiess..




ReF:

G
Na site radia vo svetot go peev tvoeto ime
C       D              G
A ti mi velis zaboravi mee...


G
Na site radia vo svetot go peev tvoeto ime
C       D              G
A ti mi velis zaboravi mee...



G
Na site radia vo svetot go peev tvoeto ime
C       D              G
A ti mi velis zaboravi mee...


G
Na site radia vo svetot go peev tvoeto ime
C       D              G
A ti mi velis zaboravi Mee...Zaboravi Meee
            
Submit corrections

comments powered by Disqus
↑ Back to top | Parketi Chords for Na Site Radia Vo Svetot. Lyrics for acoustic guitar and electric guitar. Tablatures and chords are parodies/interpretations of the original songs. You may use it for private study, scholarship, research or language learning purposes only