» » »

Parketi, Kafeavi Djudjinja Tabs (ver.1)

Artists:  A B C D E F G H I J K L M N O P Q R S T U V W X Y Z # 

Kafeavi Djudjinja Tabs (ver.1)

Parketi Tabs
Rating:
0/5 (0 votes)
Kafeavi Djudjinja lessons Tabs too difficult? Try these video lessons and learn fast
                -------------------------------------------------------------------------------
-------------------------------------------------------------------------------

Tuning: Standard
/* Simso ja sviri ova pesna vo zivo so t.n. power chords zato i jas taka ke ja 
napisam - slusajteja pesnata za ritamot*/

Intro:
e|---------------------------------------------------------------|
B|---------------------------------------------------------------|
G|---------------------------------------------------------------|
D|---------------------------------------------------------------|
A|--5--5--5--5--5--5--5--6--6--6--6--6--6--6--8---6---8---6---5--|
E|--3--3--3--3--3--3--3--4--4--4--4--4--4--4--6---4---4---4---3--| x4

Bridge:

e|--------------------------|
B|--------------------------|
G|--------------------------|
D|--------------------------|
A|--6--5--6--5--6--5--6--5--|
E|--4--3--4--3--4--3--4--3--| x2

Verse:
e|--------------------------|
B|--------------------------|
G|--------------------------|
D|--------------------------|
A|--6--5--6--5--8--5--8--5--|
E|--4--3--4--3--6--3--6--3--|
    Noke,       koga sum sam
e|--------------------------|
B|--------------------------|
G|--------------------------|
D|--------------------------|
A|--6--5--6--5--8--5--8--5--|
E|--4--3--4--3--6--3--6--3--|
    u krevet,   i mi stanuva dosadno,
e|--------------------------|
B|--------------------------|
G|--------------------------|
D|--------------------------|
A|--6--5--6--5--7--5--7--5--|
E|--4--3--4--3--5--3--5--3--|
                odam vo klozet,
e|--------------------------|
B|--------------------------|
G|--------------------------|
D|--------------------------|
A|--6--5--6--5--8--5--8--5--|
E|--4--3--4--3--6--3--6--3--|
 da si pushtam, kafeavi djudjina.

Fill:
e|---------------|
B|---------------|
G|---------------|
D|---------------|
A|--6--5--6--5---|
E|--4--3--4--3---|

e|--------------------------|
B|--------------------------|
G|--------------------------|
D|--------------------------|
A|--6--5--6--5--8--5--8--5--|
E|--4--3--4--3--6--3--6--3--|
    Odozgora,   od sholjata
e|--------------------------|
B|--------------------------|
G|--------------------------|
D|--------------------------|
A|--6--5--6--5--8--5--8--5--|
E|--4--3--4--3--6--3--6--3--|
jas gi gledam,  i posmatram,
e|---------------|
B|---------------|
G|---------------|
D|---------------|
A|--6--5--6--5---|
E|--4--3--4--3---|
    kako shlapkat,
e|--------------|
B|--------------|
G|--------------|
D|--------------|
A|--7--7--7--7--|
E|--5--5--5--5--|
    i se borat,
e|--------------|
B|--------------|
G|--------------|
D|--------------|
A|--5--5--5--5--|
E|--3--3--3--3--|
    za sloboda,
e|--------------|
B|--------------|
G|--------------|
D|--------------|
A|--8--8--8--8--|
E|--6--6--6--6--|
   tie kafeavi djudjina,
e|--------------|
B|--------------|
G|--------------|
D|--------------|
A|--7--7--7--7--|
E|--5--5--5--5--|
    i se borat,
e|--------------|
B|--------------|
G|--------------|
D|--------------|
A|--5--5--5--5--|
E|--3--3--3--3--|
    za sloboda,
e|--------------|
B|--------------|
G|--------------|
D|--------------|
A|--8--8--8--8--|
E|--6--6--6--6--|
   tie kafeavi djudjina,

Fill:
e|---------------|
B|---------------|
G|---------------|
D|---------------|
A|--6--5--6--5---|
E|--4--3--4--3---|

Chorus:
e|---------------------------------------------------------------|
B|---------------------------------------------------------------|
G|---------------------------------------------------------------|
D|---------------------------------------------------------------|
A|--5--5--5--5--5--5--5--6--6--6--6--6--6--6--8---6---8---6---5--|
E|--3--3--3--3--3--3--3--4--4--4--4--4--4--4--6---4---4---4---3--| x2

e|---------------------------------------------------------------|
B|---------------------------------------------------------------|
G|---------------------------------------------------------------|
D|---------------------------------------------------------------|
A|--5--5--5--5--5--5--5--6--6--6--6--6--6--6--8---6---8---6---5--|
E|--3--3--3--3--3--3--3--4--4--4--4--4--4--4--6---4---4---4---3--| 
    la             la la la                   Kafeavi dju-dji-na  x2

Bridge:
e|--------------------------|
B|--------------------------|
G|--------------------------|
D|--------------------------|
A|--6--5--6--5--6--5--6--5--|
E|--4--3--4--3--4--3--4--3--| x2

Verse:
e|--------------------------|
B|--------------------------|
G|--------------------------|
D|--------------------------|
A|--6--5--6--5--8--5--8--5--|
E|--4--3--4--3--6--3--6--3--|
    Sekoe malo, djudje,
e|--------------------------|
B|--------------------------|
G|--------------------------|
D|--------------------------|
A|--6--5--6--5--8--5--8--5--|
E|--4--3--4--3--6--3--6--3--|
    kafeavo,    so site sili za sloboda 
e|--------------------------|
B|--------------------------|
G|--------------------------|
D|--------------------------|
A|--6--5--6--5--7--5--7--5--|
E|--4--3--4--3--5--3--5--3--|
    se bori,    a neznae,
e|--------------------------|
B|--------------------------|
G|--------------------------|
D|--------------------------|
A|--6--5--6--5--8--5--8--5--|
E|--4--3--4--3--6--3--6--3--|
    deka sega,  vo temnica potonuva.

Fill:
e|---------------|
B|---------------|
G|---------------|
D|---------------|
A|--6--5--6--5---|
E|--4--3--4--3---|

Verse:
e|--------------------------|
B|--------------------------|
G|--------------------------|
D|--------------------------|
A|--6--5--6--5--8--5--8--5--|
E|--4--3--4--3--6--3--6--3--|
    I voda,     prsni,
e|--------------------------|
B|--------------------------|
G|--------------------------|
D|--------------------------|
A|--6--5--6--5--8--5--8--5--|
E|--4--3--4--3--6--3--6--3--|
togas se sprema,i turka po novi
e|------------|
B|------------|
G|------------|
D|------------|
A|6--5--6--5--|
E|4--3--4--3--| 
  horizonti,
e|--------------|
B|--------------|
G|--------------|
D|--------------|
A|--7--7--7--7--|
E|--5--5--5--5--|
I so sudbina teska i 
e|--------------|
B|--------------|
G|--------------|
D|--------------|
A|--5--5--5--5--|
E|--3--3--3--3--|
   macna,
e|--------------|
B|--------------|
G|--------------|
D|--------------|
A|--8--8--8--8--|
E|--6--6--6--6--|
   prikaznata zavrsu-
e|--------------|
B|--------------|
G|--------------|
D|--------------|
A|--5--5--5--5--|
E|--3--3--3--3--|
   va,
e|--------------|
B|--------------|
G|--------------|
D|--------------|
A|--7--7--7--7--|
E|--5--5--5--5--|
  prikaznata za 
e|--------------|
B|--------------|
G|--------------|
D|--------------|
A|--5--5--5--5--|
E|--3--3--3--3--|
  tie, 
e|--------------|
B|--------------|
G|--------------|
D|--------------|
A|--8--8--8--8--|
E|--6--6--6--6--|
  kafeavi djudjina!

Fill:
e|---------------|
B|---------------|
G|---------------|
D|---------------|
A|--6--5--6--5---|
E|--4--3--4--3---|

Chorus:
e|---------------------------------------------------------------|
B|---------------------------------------------------------------|
G|---------------------------------------------------------------|
D|---------------------------------------------------------------|
A|--5--5--5--5--5--5--5--6--6--6--6--6--6--6--8---6---8---6---5--|
E|--3--3--3--3--3--3--3--4--4--4--4--4--4--4--6---4---4---4---3--| x2

e|---------------------------------------------------------------|
B|---------------------------------------------------------------|
G|---------------------------------------------------------------|
D|---------------------------------------------------------------|
A|--5--5--5--5--5--5--5--6--6--6--6--6--6--6--8---6---8---6---5--|
E|--3--3--3--3--3--3--3--4--4--4--4--4--4--4--6---4---4---4---3--| 
    la             la la la                   Kafeavi dju-dji-na  x2

e|---------------------------------------------------------------|
B|---------------------------------------------------------------|
G|---------------------------------------------------------------|
D|---------------------------------------------------------------|
A|--5--5--5--5--5--5--5--6--6--6--6--6--6--6--8---6---8---6---5--|
E|--3--3--3--3--3--3--3--4--4--4--4--4--4--4--6---4---4---4---3--|

e|---------------------------------------------------------------|
B|---------------------------------------------------------------|
G|---------------------------------------------------------------|
D|---------------------------------------------------------------|
A|--5--5--5--5--5--5--5--6--6--6--6--6--6--6--8---6---8---6---5--|
E|--3--3--3--3--3--3--3--4--4--4--4--4--4--4--6---4---4---4---3--| 
    la             la la la                   la  la  la  la  la  

e|---------------------------------------------------------------|
B|---------------------------------------------------------------|
G|---------------------------------------------------------------|
D|---------------------------------------------------------------|
A|--5--5--5--5--5--5--5--6--6--6--6--6--6--6--8---6---8---6---5--|
E|--3--3--3--3--3--3--3--4--4--4--4--4--4--4--6---4---4---4---3--| 
    la             la la la                   Kafeavi dju-dji-na  x2


e|---------------------------------------------------------------|
B|---------------------------------------------------------------|
G|---------------------------------------------------------------|
D|---------------------------------------------------------------|
A|--5--5--5--5--5--5--5--6--6--6--6--6--6--6--8---6---8---6---5--|
E|--3--3--3--3--3--3--3--4--4--4--4--4--4--4--6---4---4---4---3--| 
    la             la la la                   la  la  la  la  la  x2
            

comments powered by Disqus
↑ Back to top | Parketi Tabs for Kafeavi Djudjinja. Lyrics for acoustic guitar and electric guitar. Tablatures and chords are parodies/interpretations of the original songs. You may use it for private study, scholarship, research or language learning purposes only