» » »

Parker Jack, Leave Me Behind Tabs (ver.1)

Artists:  A B C D E F G H I J K L M N O P Q R S T U V W X Y Z # 

Leave Me Behind Tabs (ver.1)

Parker Jack Tabs
 Rating:
4/5 (4 votes)
Leave Me Behind lessons Tabs too difficult? Try these video lessons and learn fast
                sup everybody
its jack again with another dumb bass song 
its best played with skill and a pound of bacon...... uh yeah

use a phase effect during the intro/solo..... but not nessecary
ok.. here goes


INTRO
     palm-mute off and on every 8 notes
  e|------------------------------|
  B|------------------------------|
  G|--7---------------------------|
  D|--7-(32X)---------------------|
  A|--5---------------------------|
  E|------------------------------|
    come in after 2 measure of rest
  e|------------------------------|
  B|------------------------------|
  G|--2h4p2----------2-4~~~~------|
  D|-------4-2-0-2-4--------------| 2X
  A|------------------------------|
  E|------------------------------|(use as solo)


MAIN RIFF 
  e|--------------------------------|
  B|--------------------------------|
  G|-7------------------------------|
  D|-7-(16X)-7-------4------5-------| 2X
  A|-5-------7-(16X)-4-(8X)-5-(8X)--|
  E|---------5-------2------3-------|

ALT. MAIN RIFF
  e|----------------------------------|
  B|----------------------------------|
  G|-7-------14-------11------12------|
  D|-7-(16X)-14-(16X)-11-(8X)-12-(8X)-| 2X
  A|-5-------12-------9-------10------|
  E|----------------------------------|


CHORUS RIFF
  e|-------------------------------|
  B|-------------------------------|
  G|-7-----------------------------|
  D|-7-(16X)-7-------9------5------|
  A|-5-------7-(16X)-9-(8X)-5-(8X)-|
  E|---------5-------7------3------|

*****NOTE*****
play transitions between chords like this

        /or\ 
e|-------|-----|
B|-------|-----|
G|-7-----|-----|
D|-7---7-|-7/9-|
A|-5H7-7-|-7/9-|
E|-----5-|-5/7-|




no junk please
            
Submit corrections

comments powered by Disqus
↑ Back to top | Parker Jack Tabs for Leave Me Behind. Lyrics for acoustic guitar and electric guitar. Tablatures and chords are parodies/interpretations of the original songs. You may use it for private study, scholarship, research or language learning purposes only