>
 >
Nobody Hurts You

Nobody Hurts You Guitar Tabs

Parker Graham - Nobody Hurts You chords, tabs, tablatures, lyrics

Guitar lessons | Add/correct | Request | Top 50 tabs Artists:  A B C D E F G H I J K L M N O P Q R S T U V W X Y Z 0-9

Nobody Hurts You Guitar Tabs – Parker Graham

CD, Sheet music, Poster

Do you like Nobody Hurts You? Share with your friends now
Tabs
NOBODY HURTS YOU
As recorded by Graham Parker
(From the 1979 Album SQUEEZING OUT SPARKS)



 Words and Music by Graham Parker

 

E5
x 7 9 9 x x 


Gtr I (E A D G B E) - 'Guitar 1'
Gtr II (E A D G B E) - 'Guitar 2'
Gtr III (E A D G B E) - 'Guitar 3'


 Intro
  Q=165
      E5
 4/4
  Gtr I
  E E E E Q  Q    +W                 E E E E E E Q    +W
|---------------|------------------|----------------|-------------------|
|---------------|------------------|----------------|-------------------|
|------------9--|-(9)--------------|----------------|-------------------|
|-----7-7-9--7--|-(7)--------------|-----7-9-7-0-9--|-(9)---------------|
|-9-9-----------|------------------|-9-9---------7--|-(7)---------------|
|---------------|------------------|----------------|-------------------|
|
| Gtr II
| Q   Q   Q  Q     Q   E E E E E E   Q   Q   Q   Q     Q   E E E E E E
|---------------|------------------|----------------|-------------------|
|---------------|------------------|----------------|-------------------|
|-----9------9--|------9---9---9---|-----9-------9--|------9---9---9----|
|-----9------9--|------9---9---9---|-----9-------9--|------9---9---9----|
|-----7------7--|------7---7---7---|-----7-------7--|------7---7---7----|
|---------------|------------------|----------------|-------------------|


                                     D5               E5
  E E E E Q  Q    +W                 Q  E E E E E E   E E E E E E E E
|---------------|------------------|----------------|-----------1h2h3--|
|---------------|------------------|----------------|-----2h3h4--------|
|------------9--|-(9)--------------|----------0h1h2-|-3h4--------------|
|-----7-7-9--7--|-(7)--------------|-0--2h3h4-------|------------------|
|-9-9-----------|------------------|----------------|------------------|
|---------------|------------------|----------------|------------------|
|
| Q   Q   Q  Q     Q   E E E E E E   W                W
|---------------|------------------|----------------|------------------|
|---------------|------------------|----------------|------------------|
|-----9------9--|------9---9---9---|-7--------------|-9----------------|
|-----9------9--|------9---9---9---|-7--------------|-9----------------|
|-----7------7--|------7---7---7---|-5--------------|-7----------------|
|---------------|------------------|----------------|------------------|


 Verse
  G5                                  A5                    D5
  +W                W                 W               E   E E E E E E E
|-(3)-------------|-----------------|---------------|-------------------|
|-----------------|-----------------|---------------|-------------------|
|-----------------|-----------------|---------------|-------------------|
|-----------------|-----------------|---------------|-----7-7-7-7-7-5-4-|
|-----------------|-----------------|---------------|-------------------|
|-----------------|-----------------|---------------|-------------------|
|
|  Q   E E Q  E E   E E E E E E E E   Q  E E E E Q    S S E E E Q   Q
|-----------------|-----------------|---------------|-------------------|
|-----------------|-----------------|---------------|-------3---3-------|
|-----------------|-----------------|-2----2---2-2--|-------2---2-------|
|--5-----5-5----5-|---5---5---5-5-5-|-2----2---2-2--|-------0---0-------|
|--5-----5-5----5-|---5---5---5-5-5-|-0----0---0-0--|-------------------|
|--3-----3-3----3-|---3---3---3-3-3-|---------------|-------------------|


  G5                                A5                  D5
  W               W                 W               E E E E E E E E
|---------------|-----------------|---------------|------------------|
|---------------|-----------------|---------------|------------------|
|---------------|-----------------|---------------|------------------|
|-5-------------|-----------------|---------------|------------------|
|---------------|-----------------|---------------|---5-7-9-7-5------|
|---------------|-----------------|---------------|-------------7-5--|
|
| Q  E E Q  E E   E E E E E E E E   Q  E E E E Q    Q   E E Q   Q
|---------------|-----------------|---------------|------------------|
|---------------|-----------------|---------------|-----3---3--------|
|---------------|-----------------|-2----2---2-2--|-----2---2--------|
|-5----5-5----5-|---5---5---5-5-5-|-2----2---2-2--|-----0---0--------|
|-5----5-5----5-|---5---5---5-5-5-|-0----0---0-0--|------------------|
|-3----3-3----3-|---3---3---3-3-3-|---------------|------------------|


  B5         G5         B5         G5   D5
  W          W          W          W
|----------|----------|----------|----------|
|----------|----------|----------|----------|
|----------|----------|----------|----------|
|----------|----------|----------|----------|
|----------|----------|----------|----------|
|-7--------|----------|----------|----------|
|
| W          W          W          H    H
|----------|----------|----------|----------|
|----------|----------|----------|------3---|
|-4--------|----------|-4--------|------2---|
|-4--------|-5--------|-4--------|-5----0---|
|-2--------|-5--------|-2--------|-5--------|
|----------|-3--------|----------|-3--------|


  G5
   E  E  E  E  Q   E  E    +E   E  E  E  Q   E  E
|-----------------------|-------------------------|
|-----------------------|-------------------------|
|-----------------------|-------------------------|
|-------11----11--12----|---------11----11--12----|
|-10-10----10--------10-|-(10)-10----10--------12-|
|-----------------------|-------------------------|
|
|  W                        W
|-----------------------|-------------------------|
|-----------------------|-------------------------|
|-----------------------|-------------------------|
|--5--------------------|---5---------------------|
|--5--------------------|---5---------------------|
|--3--------------------|---3---------------------|


  A5
   +E   E  E  E  Q   E  E    +E   E  E  E  Q    Q
|-------------------------|--------------------------|
|-------------------------|--------------------------|
|-------------------------|--------------------------|
|---------11----11--12----|---------11----11---12----|
|-(12)-12----12--------12-|-(12)-12----12------------|
|-------------------------|--------------------------|
|
|   W                         Q      E  E  E E  E E
|-------------------------|--------------------------|
|-------------------------|--------------------------|
|---2---------------------|----------2-----2----2----|
|---2---------------------|----------2-----2----2----|
|---0---------------------|----------0-----0----0----|
|-------------------------|--------------------------|


 Chorus
  D5         A5                     G5         A5
  W          E Q        E E E Q     W          H      Q  E E
|----------|----------------------|----------|----------------|
|----------|----------------------|----------|----------------|
|----------|-7----------7---------|----------|----------------|
|----------|---9b11-------9-7-----|-9--------|----------------|
|----------|------------------9---|----------|-----------5h7--|
|----------|----------------------|----------|----------------|
|
| W          E E    +E  E Q   E E   W          Q  E E Q  E E
|----------|----------------------|----------|----------------|
|-3--------|----------------------|----------|----------------|
|-2--------|-2-2----(2)-2-2---2-2-|----------|-2--2-2-2--2-2--|
|-0--------|-2-2----(2)-2-2---2-2-|-5--------|-2--2-2-2--2-2--|
|----------|-0-0----(0)-0-0---0-0-|-5--------|-0--0-0-0--0-0--|
|----------|----------------------|-3--------|----------------|


  D5                              B5                    D5
  W          E Q      E E E Q     W                 W
|----------|--------------------|-----------------|------------|
|----------|--------------------|-----------------|------------|
|----------|-7--------7---------|-----------------|------------|
|----------|---9b11-----9-7-----|-----------------|------------|
|-0--------|----------------9---|-----------------|------------|
|----------|--------------------|-7---------------|------------|
|
| W          E E    E E E E E E   E E E E E E E E   E E H    Q
|----------|--------------------|-----------------|------------|
|-3--------|-3------3---3---3---|-----------------|-----3------|
|-2--------|-2------2---2---2---|-4-4-4-4-4-4-4-4-|-4---2------|
|-0--------|-0------0---0---0---|-4-4-4-4-4-4-4-4-|-4---0------|
|----------|--------------------|-2-2-2-2-2-2-2-2-|-2----------|
|----------|--------------------|-----------------|------------|


  G5
   E  E  E  E  Q   E  E    +E   E  E  E  Q   E E
|-----------------------|------------------------|
|-----------------------|------------------------|
|-----------------------|------------------------|
|-------11----11--12----|---------11----11--12---|
|-10-10----10--------10-|-(10)-10----10--------9-|
|-----------------------|------------------------|
|
|  W                       +W
|-----------------------|------------------------|
|-----------------------|------------------------|
|-----------------------|------------------------|
|--5--------------------|--(5)-------------------|
|--5--------------------|--(5)-------------------|
|--3--------------------|--(3)-------------------|


  F#5                    E5
  +E  E  E E  Q   E  E    +E   E  E  E  Q   E  E
|----------------------|--------------------------|
|----------------------|--------------------------|
|----------------------|--------------------------|
|-------11---11--12----|---------11----11--12-----|
|-(9)-9----9-----------|----------------------10--|
|-------------------12-|-(12)-12----12------------|
|
|  W                       W
|----------------------|--------------------------|
|----------------------|--------------------------|
|----------------------|--------------------------|
|--4-------------------|---2----------------------|
|--4-------------------|---2----------------------|
|--2-------------------|---0----------------------|


  G5
   +E   E  E  E  Q   E  E    +E   E  E  E  Q   E E
|-------------------------|------------------------|
|-------------------------|------------------------|
|-------------------------|------------------------|
|---------11----11--12----|---------11----11--12---|
|-(10)-10----10--------10-|-(10)-10----10--------9-|
|-------------------------|------------------------|
|
|   W                        +W
|-------------------------|------------------------|
|-------------------------|------------------------|
|-------------------------|------------------------|
|---5---------------------|--(5)-------------------|
|---5---------------------|--(5)-------------------|
|---3---------------------|--(3)-------------------|


  F#5                    E5
  +E  E  E E  Q   E  E    +E   E  E  E  Q   E E
|----------------------|-------------------------|
|----------------------|-------------------------|
|----------------------|-------------------------|
|-------11---11--12----|---------11----11--12-0--|
|-(9)-9----9-----------|-------------------------|
|-------------------12-|-(12)-12----12-----------|
|
|  W                       W
|----------------------|-------------------------|
|----------------------|-------------------------|
|----------------------|-------------------------|
|--4-------------------|---2---------------------|
|--4-------------------|---2---------------------|
|--2-------------------|---0---------------------|


 Verse
  G5                                  A5                  D5
  +W                W                 W               E E E E E E E E
|-----------------|-----------------|---------------|------------------|
|-----------------|-----------------|---------------|------------------|
|-----------------|-----------------|---------------|------------------|
|-(0)-------------|-----------------|---------------|---7-7-7-7-7-5-4--|
|-----------------|-----------------|---------------|------------------|
|-----------------|-----------------|---------------|------------------|
|
|  Q   E E Q  E E   E E E E E E E E   Q  E E E E Q    Q   E E Q   Q
|-----------------|-----------------|---------------|------------------|
|-----------------|-----------------|---------------|-----3---3--------|
|-----------------|-----------------|-2----2---2-2--|-----2---2--------|
|--5-----5-5----5-|---5---5---5-5-5-|-2----2---2-2--|-----0---0--------|
|--5-----5-5----5-|---5---5---5-5-5-|-0----0---0-0--|------------------|
|--3-----3-3----3-|---3---3---3-3-3-|---------------|------------------|


  G5                                A5                  D5
  W               W                 W               E E E E E E E E
|---------------|-----------------|---------------|------------------|
|---------------|-----------------|---------------|------------------|
|---------------|-----------------|---------------|------------------|
|-5-------------|-----------------|---------------|------------------|
|---------------|-----------------|---------------|---5-7-9-7-5------|
|---------------|-----------------|---------------|-------------7-5--|
|
| Q  E E Q  E E   E E E E E E E E   Q  E E E E Q    Q   E E Q   Q
|---------------|-----------------|---------------|------------------|
|---------------|-----------------|---------------|-----3---3--------|
|---------------|-----------------|-2----2---2-2--|-----2---2--------|
|-5----5-5----5-|---5---5---5-5-5-|-2----2---2-2--|-----0---0--------|
|-5----5-5----5-|---5---5---5-5-5-|-0----0---0-0--|------------------|
|-3----3-3----3-|---3---3---3-3-3-|---------------|------------------|


  B5         G5         B5         G5   D5
  W          W          W          W
|----------|----------|----------|----------|
|----------|----------|----------|----------|
|----------|----------|----------|----------|
|----------|----------|----------|----------|
|----------|----------|----------|----------|
|-7--------|----------|----------|----------|
|
| W          W          W          H    H
|----------|----------|----------|----------|
|----------|----------|----------|------3---|
|-4--------|----------|-4--------|------2---|
|-4--------|-5--------|-4--------|-5----0---|
|-2--------|-5--------|-2--------|-5--------|
|----------|-3--------|----------|-3--------|


  G5
   E  E  E  E  Q   E  E    +E   E  E  E  Q   E  E
|-----------------------|-------------------------|
|-----------------------|-------------------------|
|-----------------------|-------------------------|
|-------11----11--12----|---------11----11--12----|
|-10-10----10--------10-|-(10)-10----10--------12-|
|-----------------------|-------------------------|
|
|  W                        W
|-----------------------|-------------------------|
|-----------------------|-------------------------|
|-----------------------|-------------------------|
|--5--------------------|---5---------------------|
|--5--------------------|---5---------------------|
|--3--------------------|---3---------------------|


  A5
   +E   E  E  E  Q   E  E    +E   E  E  E  Q    Q
|-------------------------|--------------------------|
|-------------------------|--------------------------|
|-------------------------|--------------------------|
|---------11----11--12----|---------11----11---12----|
|-(12)-12----12--------12-|-(12)-12----12------------|
|-------------------------|--------------------------|
|
|   W                         E   E  E  E  E E  E E
|-------------------------|--------------------------|
|-------------------------|--------------------------|
|---2---------------------|---2------2-----2----2----|
|---2---------------------|---2------2-----2----2----|
|---0---------------------|---0------0-----0----0----|
|-------------------------|--------------------------|


 Chorus
  D5         A5                     G5         A5
  W          E Q        E E E Q     W          H      Q  E E
|----------|----------------------|----------|----------------|
|----------|----------------------|----------|----------------|
|----------|-7----------7---------|----------|----------------|
|----------|---9b11-------9-7-----|-9--------|----------------|
|----------|------------------9---|----------|-----------5h7--|
|----------|----------------------|----------|----------------|
|
| W          E E    +E  E Q   E E   W          Q  E E Q  E E
|----------|----------------------|----------|----------------|
|-3--------|----------------------|----------|----------------|
|-2--------|-2-2----(2)-2-2---2-2-|----------|-2--2-2-2--2-2--|
|-0--------|-2-2----(2)-2-2---2-2-|-5--------|-2--2-2-2--2-2--|
|----------|-0-0----(0)-0-0---0-0-|-5--------|-0--0-0-0--0-0--|
|----------|----------------------|-3--------|----------------|


  D5                              B5                    D5
  W          E Q      E E E Q     W                 W
|----------|--------------------|-----------------|------------|
|----------|--------------------|-----------------|------------|
|----------|-7--------7---------|-----------------|------------|
|----------|---9b11-----9-7-----|-----------------|------------|
|-0--------|----------------9---|-----------------|------------|
|----------|--------------------|-7---------------|------------|
|
| W          E E    E E E E E E   E E E E E E E E   E E H    Q
|----------|--------------------|-----------------|------------|
|-3--------|-3------3---3---3---|-----------------|-----3------|
|-2--------|-2------2---2---2---|-4-4-4-4-4-4-4-4-|-4---2------|
|-0--------|-0------0---0---0---|-4-4-4-4-4-4-4-4-|-4---0------|
|----------|--------------------|-2-2-2-2-2-2-2-2-|-2----------|
|----------|--------------------|-----------------|------------|


  G5
   E  E  E  E  Q   E  E    +E   E  E  E  Q   E E
|-----------------------|------------------------|
|-----------------------|------------------------|
|-----------------------|------------------------|
|-------11----11--12----|---------11----11--12---|
|-10-10----10--------10-|-(10)-10----10--------9-|
|-----------------------|------------------------|
|
|  W                       +W
|-----------------------|------------------------|
|-----------------------|------------------------|
|-----------------------|------------------------|
|--5--------------------|--(5)-------------------|
|--5--------------------|--(5)-------------------|
|--3--------------------|--(3)-------------------|


  F#5                    E5
  +E  E  E E  Q   E  E    +E   E  E  E  Q   E  E
|----------------------|--------------------------|
|----------------------|--------------------------|
|----------------------|--------------------------|
|-------11---11--12----|---------11----11--12-----|
|-(9)-9----9-----------|----------------------10--|
|-------------------12-|-(12)-12----12------------|
|
|  W                       W
|----------------------|--------------------------|
|----------------------|--------------------------|
|----------------------|--------------------------|
|--4-------------------|---2----------------------|
|--4-------------------|---2----------------------|
|--2-------------------|---0----------------------|


  G5
   +E   E  E  E  Q   E  E    +E   E  E  E  Q   E E
|-------------------------|------------------------|
|-------------------------|------------------------|
|-------------------------|------------------------|
|---------11----11--12----|---------11----11--12---|
|-(10)-10----10--------10-|-(10)-10----10--------9-|
|-------------------------|------------------------|
|
|   W                        +W
|-------------------------|------------------------|
|-------------------------|------------------------|
|-------------------------|------------------------|
|---5---------------------|--(5)-------------------|
|---5---------------------|--(5)-------------------|
|---3---------------------|--(3)-------------------|


  F#5                    E5
  +E  E  E E  Q   E  E    +E   E  E  E  Q   E E
|----------------------|-------------------------|
|----------------------|-------------------------|
|----------------------|-------------------------|
|-------11---11--12----|---------11----11--12----|
|-(9)-9----9-----------|-------------------------|
|-------------------12-|-(12)-12----12-----------|
|
|  W                       W
|----------------------|-------------------------|
|----------------------|-------------------------|
|----------------------|-------------------------|
|--4-------------------|---2---------------------|
|--4-------------------|---2---------------------|
|--2-------------------|---0---------------------|


 Intro
      E5
  E E E E Q  Q    +W                 E E E E E E Q    +W
|---------------|------------------|----------------|-------------------|
|---------------|------------------|----------------|-------------------|
|------------9--|-(9)--------------|----------------|-------------------|
|-----7-7-9--7--|-(7)--------------|-----7-9-7-0-9--|-(9)---------------|
|-9-9-----------|------------------|-9-9---------7--|-(7)---------------|
|---------------|------------------|----------------|-------------------|
|
| Q   Q   Q  Q     Q   E E E E E E   Q   Q   Q   Q     Q   E E E E E E
|---------------|------------------|----------------|-------------------|
|---------------|------------------|----------------|-------------------|
|-----9------9--|------9---9---9---|-----9-------9--|------9---9---9----|
|-----9------9--|------9---9---9---|-----9-------9--|------9---9---9----|
|-----7------7--|------7---7---7---|-----7-------7--|------7---7---7----|
|---------------|------------------|----------------|-------------------|


                                     D5               E5
  E E E E Q  Q    +W                 Q  E E E E E E   E E E E E E E E
|---------------|------------------|----------------|-----------1h2h3--|
|---------------|------------------|----------------|-----2h3h4--------|
|------------9--|-(9)--------------|----------0h1h2-|-3h4--------------|
|-----7-7-9--7--|-(7)--------------|-0--2h3h4-------|------------------|
|-9-9-----------|------------------|----------------|------------------|
|---------------|------------------|----------------|------------------|
|
| Q   Q   Q  Q     Q   E E E E E E   W                W
|---------------|------------------|----------------|------------------|
|---------------|------------------|-3--------------|------------------|
|-----9------9--|------9---9---9---|-2--------------|-9----------------|
|-----9------9--|------9---9---9---|-0--------------|-9----------------|
|-----7------7--|------7---7---7---|----------------|-7----------------|
|---------------|------------------|----------------|------------------|


 Verse
  G5                                  A5                  D5
  +W                W                 W               E E E E E E E E
|-(3)-------------|-----------------|---------------|------------------|
|-----------------|-----------------|---------------|------------------|
|-----------------|-----------------|---------------|------------------|
|-----------------|-----------------|---------------|---7-7-7-7-7-5-4--|
|-----------------|-----------------|---------------|------------------|
|-----------------|-----------------|---------------|------------------|
|
|  Q   E E Q  E E   E E E E E E E E   Q  E E E E Q    Q   E E Q   Q
|-----------------|-----------------|---------------|------------------|
|-----------------|-----------------|---------------|-----3---3--------|
|-----------------|-----------------|-2----2---2-2--|-----2---2--------|
|--5-----5-5----5-|---5---5---5-5-5-|-2----2---2-2--|-----0---0--------|
|--5-----5-5----5-|---5---5---5-5-5-|-0----0---0-0--|------------------|
|--3-----3-3----3-|---3---3---3-3-3-|---------------|------------------|


  G5                                A5                  D5
  W               W                 W               E E E E E E E E
|---------------|-----------------|---------------|------------------|
|---------------|-----------------|---------------|------------------|
|---------------|-----------------|---------------|------------------|
|-5-------------|-----------------|---------------|------------------|
|---------------|-----------------|---------------|---5-7-9-7-5------|
|---------------|-----------------|---------------|-------------7-5--|
|
| Q  E E Q  E E   E E E E E E E E   Q  E E E E Q    Q   E E Q   Q
|---------------|-----------------|---------------|------------------|
|---------------|-----------------|---------------|-----3---3--------|
|---------------|-----------------|-2----2---2-2--|-----2---2--------|
|-5----5-5----5-|---5---5---5-5-5-|-2----2---2-2--|-----0---0--------|
|-5----5-5----5-|---5---5---5-5-5-|-0----0---0-0--|------------------|
|-3----3-3----3-|---3---3---3-3-3-|---------------|------------------|


  B5         G5         B5         G5   D5
  W          W          W          W
|----------|----------|----------|----------|
|----------|----------|----------|----------|
|----------|----------|----------|----------|
|----------|----------|----------|----------|
|----------|----------|----------|----------|
|-7--------|----------|----------|----------|
|
| W          W          W          H    H
|----------|----------|----------|----------|
|----------|----------|----------|------3---|
|-4--------|----------|-4--------|------2---|
|-4--------|-5--------|-4--------|-5----0---|
|-2--------|-5--------|-2--------|-5--------|
|----------|-3--------|----------|-3--------|


  G5
   E  E  E  E  Q   E  E    +E   E  E  E  Q   E  E
|-----------------------|-------------------------|
|-----------------------|-------------------------|
|-----------------------|-------------------------|
|-------11----11--12----|---------11----11--12----|
|-10-10----10--------10-|-(10)-10----10--------12-|
|-----------------------|-------------------------|
|
|  W                        W
|-----------------------|-------------------------|
|-----------------------|-------------------------|
|-----------------------|-------------------------|
|--5--------------------|---5---------------------|
|--5--------------------|---5---------------------|
|--3--------------------|---3---------------------|


  A5
   +E   E  E  E  Q   E  E    +E   E  E  E  Q    Q
|-------------------------|--------------------------|
|-------------------------|--------------------------|
|-------------------------|--------------------------|
|---------11----11--12----|---------11----11---12----|
|-(12)-12----12--------12-|-(12)-12----12------------|
|-------------------------|--------------------------|
|
|   W                         Q      E  E  E E  E E
|-------------------------|--------------------------|
|-------------------------|--------------------------|
|---2---------------------|----------2-----2----2----|
|---2---------------------|----------2-----2----2----|
|---0---------------------|----------0-----0----0----|
|-------------------------|--------------------------|


 Chorus
  D5         A5                     G5         A5
  W          E Q        E E E Q     W          H      Q  E E
|----------|----------------------|----------|----------------|
|----------|----------------------|----------|----------------|
|----------|-7----------7---------|----------|----------------|
|----------|---9b11-------9-7-----|-9--------|-----------5h7--|
|----------|------------------9---|----------|----------------|
|----------|----------------------|----------|----------------|
|
| W          E E    +E  E Q   E E   W          Q  E E Q  E E
|----------|----------------------|----------|----------------|
|-3--------|----------------------|----------|----------------|
|-2--------|-2-2----(2)-2-2---2-2-|----------|-2--2-2-2--2-2--|
|-0--------|-2-2----(2)-2-2---2-2-|-5--------|-2--2-2-2--2-2--|
|----------|-0-0----(0)-0-0---0-0-|-5--------|-0--0-0-0--0-0--|
|----------|----------------------|-3--------|----------------|


  D5                              B5                    D5
  W          E Q      E E E Q     W                 W
|----------|--------------------|-----------------|------------|
|----------|--------------------|-----------------|------------|
|----------|-7--------7---------|-----------------|------------|
|----------|---9b11-----9-7-----|-----------------|------------|
|-0--------|----------------9---|-----------------|------------|
|----------|--------------------|-7---------------|------------|
|
| W          E E    E E E E E E   E E E E E E E E   E E H    Q
|----------|--------------------|-----------------|------------|
|-3--------|-3------3---3---3---|-----------------|-----3------|
|-2--------|-2------2---2---2---|-4-4-4-4-4-4-4-4-|-4---2------|
|-0--------|-0------0---0---0---|-4-4-4-4-4-4-4-4-|-4---0------|
|----------|--------------------|-2-2-2-2-2-2-2-2-|-2----------|
|----------|--------------------|-----------------|------------|


  G                                            F#5
  Gtr II
   E  E  Q     Q   E  E     H            Q   E E
|--3------------------3-|------------------------|
|--3------------------3-|------------------------|
|--0------------------0-|------------------------|
|--0------------------0-|----------------------4-|
|--2------------------2-|----------------------4-|
|--3------------------3-|----------------------2-|
|
| Gtr III
|  E  E  E  E  Q   E  E    +E   E  E  E  Q   E E
|-----------------------|------------------------|
|-----------------------|------------------------|
|-----------------------|------------------------|
|-------11----11--12----|---------11----11--12---|
|-10-10----10--------10-|-(10)-10----10--------9-|
|-----------------------|------------------------|


                    E5
   H          Q   E  E     W
|----------------------|--------------------------|
|----------------------|--------------------------|
|----------------------|--------------------------|
|--------------------2-|--------------------------|
|--------------------2-|--------------------------|
|--------------------0-|--------------------------|
|
| +E  E  E E  Q   E  E    +E   E  E  E  Q   E  E
|----------------------|--------------------------|
|----------------------|--------------------------|
|----------------------|--------------------------|
|-------11---11--12----|---------11----11--12-----|
|-(9)-9----9-----------|----------------------10--|
|-------------------12-|-(12)-12----12------------|


  G                                              F#5
    E   E  Q     Q   E  E     H            Q   E E
|---3-------------------3-|------------------------|
|---3-------------------3-|------------------------|
|---0-------------------0-|------------------------|
|---0-------------------0-|----------------------4-|
|---2-------------------2-|----------------------4-|
|---3-------------------3-|----------------------2-|
|
|  +E   E  E  E  Q   E  E    +E   E  E  E  Q   E E
|-------------------------|------------------------|
|-------------------------|------------------------|
|-------------------------|------------------------|
|---------11----11--12----|---------11----11--12---|
|-(10)-10----10--------10-|-(10)-10----10--------9-|
|-------------------------|------------------------|


                    E5
   H          Q   E  E     W
|----------------------|--------------------------|
|----------------------|--------------------------|
|----------------------|--------------------------|
|--------------------2-|--------------------------|
|--------------------2-|--------------------------|
|--------------------0-|--------------------------|
|
| +E  E  E E  Q   E  E    +E   E  E  E  Q   E  E
|----------------------|--------------------------|
|----------------------|--------------------------|
|----------------------|--------------------------|
|-------11---11--12----|---------11----11--12-----|
|-(9)-9----9-----------|----------------------10--|
|-------------------12-|-(12)-12----12------------|


  G                                              F#5
    E   E  Q     Q   E  E     H            Q   E E
|---3-------------------3-|------------------------|
|---3-------------------3-|------------------------|
|---0-------------------0-|------------------------|
|---0-------------------0-|----------------------4-|
|---2-------------------2-|----------------------4-|
|---3-------------------3-|----------------------2-|
|
|  +E   E  E  E  Q   E  E    +E   E  E  E  Q   E E
|-------------------------|------------------------|
|-------------------------|------------------------|
|-------------------------|------------------------|
|---------11----11--12----|---------11----11--12---|
|-(10)-10----10--------10-|-(10)-10----10--------9-|
|-------------------------|------------------------|


                    E5
   H          Q   E  E     W
|----------------------|--------------------------|
|----------------------|--------------------------|
|----------------------|--------------------------|
|--------------------2-|--------------------------|
|--------------------2-|--------------------------|
|--------------------0-|--------------------------|
|
| +E  E  E E  Q   E  E    +E   E  E  E  Q   E  E
|----------------------|--------------------------|
|----------------------|--------------------------|
|----------------------|--------------------------|
|-------11---11--12----|---------11----11--12-----|
|-(9)-9----9-----------|----------------------10--|
|-------------------12-|-(12)-12----12------------|


  G                                              F#5
    E   E  Q     Q   E  E     H            Q   E E
|---3-------------------3-|------------------------|
|---3-------------------3-|------------------------|
|---0-------------------0-|------------------------|
|---0-------------------0-|----------------------4-|
|---2-------------------2-|----------------------4-|
|---3-------------------3-|----------------------2-|
|
|  +E   E  E  E  Q   E  E    +E   E  E  E  Q   E E
|-------------------------|------------------------|
|-------------------------|------------------------|
|-------------------------|------------------------|
|---------11----11--12----|---------11----11--12---|
|-(10)-10----10--------10-|-(10)-10----10--------9-|
|-------------------------|------------------------|


                    E5
   H          Q   E  E     W
|----------------------|----------------------|
|----------------------|----------------------|
|----------------------|----------------------|
|--------------------2-|----------------------|
|--------------------2-|----------------------|
|--------------------0-|----------------------|
|
| +E  E  E E  Q   E  E    +E   E  E  E  Q   Q
|----------------------|----------------------|
|----------------------|----------------------|
|----------------------|----------------------|
|-------11---11--12----|---------11----11--12-|
|-(9)-9----9-----------|----------------------|
|-------------------12-|-(12)-12----12--------|


  G
  Gtr I
    H        Q   E E   +Q    E E E E Q
|--------------------|-------------------|
|------------------5-|-(5)---5-3---------|
|--------------------|-----------4-2-----|
|--------------------|---------------4---|
|--------------------|-------------------|
|--------------------|-------------------|
|
| Gtr II
|   E  E E E E E E E    E  E E E E E E E
|---3----3---3-----3-|-----3-3---3---3---|
|---3----3---3-----3-|-----3-3---3---3---|
|---0----0---0-----0-|-----0-0---0---0---|
|---0----0---0-----0-|-----0-0---0---0---|
|---2----2---2-----2-|-----2-2---2---2---|
|---3----3---3-----3-|-----3-3---3---3---|
|
| Gtr III
|  +W                   W
|--------------------|-------------------|
|--------------------|-------------------|
|--------------------|-------------------|
|-(12)---------------|-------------------|
|--------------------|-------------------|
|--------------------|-------------------|


  A5
  H       Q   E E   +Q    E E H
|-----------------|--------------------|
|---------------5-|-(5)---5-3-5--------|
|-----------------|--------------------|
|-----------------|--------------------|
|-----------------|--------------------|
|-----------------|--------------------|
|
| E E E E E E E E    E  E E E E E E E
|-----------------|--------------------|
|-----------------|--------------------|
|-2---2---2-----2-|-----2-2---2---2----|
|-2---2---2-----2-|-----2-2---2---2----|
|-0---0---0-----0-|-----0-0---0---2----|
|-----------------|--------------------|
|
| W                  W
|-----------------|--------------------|
|-----------------|--------------------|
|-----------------|--------------------|
|-----------------|--------------------|
|-----------------|--------------------|
|-----------------|--------------------|


  G
  H       Q   E E      +Q       E E E E Q
|--------------------|----------------------|
|--------------------|----------------------|
|---------------9b11-|-(9)b11---9-7---------|
|--------------------|--------------9-7-----|
|--------------------|------------------9---|
|--------------------|----------------------|
|
| E E E E E E E E       E     E E E E E E E
|-3---3---3-----3----|--------3-3---3---3---|
|-3---3---3-----3----|--------3-3---3---3---|
|-0---0---0-----0----|--------0-0---0---0---|
|-0---0---0-----0----|--------0-0---0---0---|
|-2---2---2-----2----|--------2-2---2---2---|
|-3---3---3-----3----|--------3-3---3---3---|


  A5
  H       Q   E E      +E     E H          Q
|--------------------|--------------------------|
|--------------------|--------9-----------------|
|---------------9b11-|-(9)b11---9b11------------|
|--------------------|--------------------------|
|--------------------|--------------------------|
|--------------------|--------------------------|
|
| E E E E E E E E       E     E E    E E E E E
|--------------------|--------------------------|
|--------------------|--------------------------|
|-2---2---2-----2----|--------2-2------2---2----|
|-2---2---2-----2----|--------2-2------2---2----|
|-0---0---0-----0----|--------0-0------0---2----|
|--------------------|--------------------------|


  G5
   E  E  E  E  Q   E  E    +E   E  E  E  Q   E E
|-----------------------|------------------------|
|-----------------------|------------------------|
|-----------------------|------------------------|
|-------11----11--12----|---------11----11--12---|
|-10-10----10--------10-|-(10)-10----10--------9-|
|-----------------------|------------------------|
|
|  W                       +W
|-----------------------|------------------------|
|-----------------------|------------------------|
|-----------------------|------------------------|
|--5--------------------|--(5)-------------------|
|--5--------------------|--(5)-------------------|
|--3--------------------|--(3)-------------------|


  F#5                    E5
  +E  E  E E  Q   E  E    +E   E  E  E  Q   E  E
|----------------------|--------------------------|
|----------------------|--------------------------|
|----------------------|--------------------------|
|-------11---11--12----|---------11----11--12-----|
|-(9)-9----9-----------|----------------------10--|
|-------------------12-|-(12)-12----12------------|
|
|  W                       W
|----------------------|--------------------------|
|----------------------|--------------------------|
|----------------------|--------------------------|
|--4-------------------|---2----------------------|
|--4-------------------|---2----------------------|
|--2-------------------|---0----------------------|


  G5
   E  E  E  E  Q   E  E    +E   E  E  E  Q   E E
|-----------------------|------------------------|
|-----------------------|------------------------|
|-----------------------|------------------------|
|-------11----11--12----|---------11----11--12---|
|-10-10----10--------10-|-(10)-10----10--------9-|
|-----------------------|------------------------|
|
|  W                       +W
|-----------------------|------------------------|
|-----------------------|------------------------|
|-----------------------|------------------------|
|--5--------------------|--(5)-------------------|
|--5--------------------|--(5)-------------------|
|--3--------------------|--(3)-------------------|


  F#5                    E5
  +E  E  E E  Q   E  E    +E   E  E  E  Q   Q
|----------------------|----------------------|
|----------------------|----------------------|
|----------------------|----------------------|
|-------11---11--12----|---------11----11--12-|
|-(9)-9----9-----------|----------------------|
|-------------------12-|-(12)-12----12--------|
|
|  W                       W
|----------------------|----------------------|
|----------------------|----------------------|
|----------------------|----------------------|
|--4-------------------|---2------------------|
|--4-------------------|---2------------------|
|--2-------------------|---0------------------|


  G
  H       Q   E  E       +Q        E  E  E  E Q
|---------------12b14-|-(12)b14---12-10-----------|
|---------------------|-----------------12-10-8---|
|---------------------|---------------------------|
|---------------------|---------------------------|
|---------------------|---------------------------|
|---------------------|---------------------------|
|
| E E E E E E E  E        E     E  E  E  E  E E E
|-3---3---3------3----|---------3--3-----3----3---|
|-3---3---3------3----|---------3--3-----3----3---|
|-0---0---0------0----|---------0--0-----0----0---|
|-0---0---0------0----|---------0--0-----0----0---|
|-2---2---2------2----|---------2--2-----2----2---|
|-3---3---3------3----|---------3--3-----3----3---|


  A5            B5
  H       Q   E  E       +E      E  Q       E  E     Q
|---------------12b14-|-(12)b14-15-12b14---15-12b14-15----|
|---------------------|-----------------------------------|
|---------------------|-----------------------------------|
|---------------------|-----------------------------------|
|---------------------|-----------------------------------|
|---------------------|-----------------------------------|
|
| E E E E E E E  E        E      E  E    E  E  E     E E
|---------------------|-----------------------------------|
|---------------------|-----------------------------------|
|-2---2---2------4----|----------4--4-------4--------4----|
|-2---2---2------4----|----------4--4-------4--------4----|
|-0---0---0------2----|----------2--2-------2--------2----|
|---------------------|-----------------------------------|


  G
  H       Q   E  E       +Q        E  E  E  E  Q
|---------------12b14-|-(12)b14---12-10------------|
|---------------------|-----------------12-10------|
|---------------------|-----------------------12---|
|---------------------|----------------------------|
|---------------------|----------------------------|
|---------------------|----------------------------|
|
| E E E E E E E  E        E     E  E  E  E  E  E E
|-3---3---3------3----|---------3--3-----3-----3---|
|-3---3---3------3----|---------3--3-----3-----3---|
|-0---0---0------0----|---------0--0-----0-----0---|
|-0---0---0------0----|---------0--0-----0-----0---|
|-2---2---2------2----|---------2--2-----2-----2---|
|-3---3---3------3----|---------3--3-----3-----3---|


  A5            B5
  H       Q   E  E       +Q        E  E  H
|---------------12b14-|-(12)b14---12-10-12b14r=======|
|---------------------|------------------------------|
|---------------------|------------------------------|
|---------------------|------------------------------|
|---------------------|------------------------------|
|---------------------|------------------------------|
|
| E E E E E E E  E        E     E  E  E  E    E E E
|---------------------|------------------------------|
|---------------------|------------------------------|
|-2---2---2------4----|---------4--4-----4------4----|
|-2---2---2------4----|---------4--4-----4------4----|
|-0---0---0------2----|---------2--2-----2------2----|
|---------------------|------------------------------|


 Outro
   Q      E  E  Q   Q     +W
|-12b14--12-10---------|---------*|
|--------------12--10--|-(10)----*|
|----------------------|---------*|
|----------------------|---------*|
|----------------------|---------*|
|----------------------|---------*|






Duration Legend
---------------
W - whole; H - half; Q - quarter; E - 8th; S - 16th; T - 32nd; X - 64th; a - acciaccatura
+ - note tied to previous; . - note dotted; .. - note double dotted
Uncapitalized letters represent notes that are staccato (1/2 duration)
Irregular groupings are notated above the duration line
Duration letters will always appear directly above the note/fret number it represents the
duration for.  Duration letters with no fret number below them represent rests.  Multi-
bar rests are notated in the form Wxn, where n is the number of bars to rest for.  Low
melody durations appear below the staff

Tablature Legend
----------------
 h   - hammer-on
 p   - pull-off
 b   - bend
 pb  - pre-bend
 r   - bend release (if no number after the r, then release immediately)
 /\  - slide into or out of (from/to "nowhere")
 s   - legato slide
 S   - shift slide
 - natural harmonic
[n]  - artificial harmonic
n(n) - tapped harmonic
 ~   - vibrato
 tr  - trill
 T   - tap
 TP  - trem. picking
 PM  - palm muting
\n/  - tremolo bar dip; n = amount to dip
 \n  - tremolo bar down
 n/  - tremolo bar up
/n\  - tremolo bar inverted dip
 =   - hold bend; also acts as connecting device for hammers/pulls
  - volume swell (louder/softer)
 x   - on rhythm slash represents muted slash
 o   - on rhythm slash represents single note slash

Misc Legend
-----------
 |  - bar
||  - double bar
||o - repeat start
o|| - repeat end
*|  - double bar (ending)
 :  - bar (freetime)
 $  - Segno
 &  - Coda
Tempo markers -  = BPM(8/16=s8/s16), where s8 = swing 8ths, s16 = swing 16ths





Comments


Popular Parker Graham tabs & chords
A Change Is Gonna Come Chords
Three Martini Lunch Chords
You Cant Be Too Strong Chords
A Change Is Gonna Come Tabs
Three Martini Lunch Tabs
You Cant Be Too Strong Tabs


Song lyrics



↑ Back to top | Tablatures and chords are parodies/interpretations of the original songs. You may use it for private study, scholarship, research or language learning purposes only
© 2014 AZChords.com Contact us | Privacy policy | DMCA | Add/correct tabs | Request tabs | Top 50 tabs