>
 >
Evolution

Evolution Guitar Tabs

Paranoid Social Club - Evolution chords, tabs, tablatures, lyrics

Guitar lessons | Add/correct | Request | Top 50 tabs Artists:  A B C D E F G H I J K L M N O P Q R S T U V W X Y Z 0-9

Evolution Guitar Tabs – Paranoid Social Club

CD, Sheet music, Poster

Do you like Evolution? Share with your friends now
Tabs
-------------------------------------------------------------------------------
-------------------------------------------------------------------------------

Tuning: E A D G B e

VERSE
e|---------------------------------------------------------------|
B|---------------7bp5-----------------------------7bp5-----------|
G|---------------------6---3~~~-------------------------6---3~~~-|
D|---------------------------------------------------------------|
A|-/11---8\\------------------------/11---8\\--------------------|
E|-/9----6\\------------------------/9----6\\--------------------|

e|---------------------------------------------------------------|
B|---------------7bp5-----------------------------7bp5-----------|
G|---------------------6---3~~~-------------------------6---3~~~-|
D|---------------------------------------------------------------|
A|-/11---5--------------------------/11---5----------------------|
E|-/9----3--------------------------/9----3----------------------|

e|---------------------------------------------------------------|
B|---------------7bp5-----------------------------7bp5-----------|
G|---------------------6---3~~~-------------------------6---3~~~-|
D|---------------------------------------------------------------|
A|-/11---8\\------------------------/11---8\\--------------------|
E|-/9----6\\------------------------/9----6\\--------------------|

e|---------------------------------------------------------------|
B|---------------7bp5-----------------------------7bp5-----------|
G|---------------------6---3~~~-------------------------6---3~~~-|
D|---------------------------------------------------------------|
A|-/11---5--------------------------/11---5----------------------|
E|-/9----3--------------------------/9----3----------------------|



CHORUS 1
 A#/Bb C#/Db D#/Eb   C
e|---| |---| |---| |---|
B|-2-| |-5-| |-7-| |-4-|
G|-3-| |-6-| |-8-| |-5-|
D|-3-| |-6-| |-8-| |-5-|
A|-1-| |-4-| |-6-| |-3-|
E|---| |---| |---| |---|
 
 A#/Bb                                C#/Db
I always thought that when I grew up, I'd be just like you,

          D#/Eb                    C#/Db     C
just like rock and roll, just like revolution.

A#/Bb                                 C#/Db
I always thought that when I grew up, I'd be just like you,

          D#/Eb                    C#/Db     C      A#/Bb
just like rock and roll, just like evolution, just like evolution.


CHORUS 2
	
 A#/Bb                 C#/Db
I always thought that, I always thought that

       D#/Eb
I'd be just like you, just like you,

 A#/Bb                     C#/Db
just like rock and roll, just like revolution,

          D#/Eb                    C#/Db     C      A#/Bb
just like rock and roll, just like evolution, just like evolution




BRIDGE 
e|-----------------------------------------------|
B|-----------------------------------------------|
G|-----------------------------------------------|
D|-----------------------------------------------|
A|---8---6---8---6---8---6---8---6---8---11--11--|
E|---6---4---6---4---6---4---6---4---6---9---9---|

e|-----------------------------------------------|
B|-----------------------------------------------|
G|-----------------------------------------------|
D|-----------------------------------------------|
A|---8---6---8---6---8---6---8---6---8---12--11--|
E|---6---4---6---4---6---4---6---4---6---10--9---|

e|-----------------------------------------------|
B|-----------------------------------------------|
G|-----------------------------------------------|
D|-----------------------------------------------|
A|---8---6---8---6---8---6---8---6---8---11--11--|
E|---6---4---6---4---6---4---6---4---6---9---9---|

e|-----------------------------------------------------------------------|
B|-----------------------------------------------------------------------|
G|---------------------------------------------------------7-5---5-------|
D|-------------------------------------------------------------7---7-5---|
A|---8---6---8---6---8---6---8---6---8---12--11-8---6---8----------------|
E|---6---4---6---4---6---4---6---4---6---10--9--6---4---6----------------|


END

e|---------------------------------------------------------------|
B|---------------7bp5-----------------------------7bp5-----------|
G|---------------------6---3~~~-------------------------6---3~~~-|
D|---------------------------------------------------------------|
A|-/11---8\\------------------------/11---8\\--------------------|
E|-/9----6\\------------------------/9----6\\--------------------|

e|---------------------------------------------------------------|
B|---------------7bp5-----------------------------7bp5-----------|
G|---------------------6---3~~~-------------------------6---3~~~-|
D|---------------------------------------------------------------|
A|-/11---8\\------------------------/11---8\\--------------------|
E|-/9----6\\------------------------/9----6\\--------------------|

e|-------------------------------7b-----------9--------10--------------------|
B|---7bp5---------------9--7---------9--7--------9--7------------------------|
G|---------6---3~~~-----------9------------9---------------------------------|
D|---------------------------------------------------------------------------|
A|---------------------------------------------------------8\\---------------|
E|---------------------------------------------------------6\\---------------|


VERSE

CHORUS 1

VERSE

CHORUS 1

BRIDGE

CHORUS 1

CHORUS 2

END


| b  bend note
| /  slide up
| \  slide down
| h  hammer-on
| p  pull-off
| ~  vibrato
| +  harmonic
| x  Mute note
===============================================================================





Comments


Popular Paranoid Social Club tabs & chords
Two Girls Bass Tabs
Basketball Tabs
Bully Tabs
Righteous Tabs
Two Girls Tabs
Two Girls 1 Tabs
Wasted Tabs


Song lyrics



↑ Back to top | Tablatures and chords are parodies/interpretations of the original songs. You may use it for private study, scholarship, research or language learning purposes only
© 2014 AZChords.com Contact us | Privacy policy | DMCA | Add/correct tabs | Request tabs | Top 50 tabs