» » »

We Are Broken Bass tabs (ver.1)

Artists:  A B C D E F G H I J K L M N O P Q R S T U V W X Y Z # 

We Are Broken Bass tabs (ver.1)

Paramore
Rating:
0/5 (0 votes)

Hard to play? Try these video lessons and learn fast.
                -------------------------------------------------------------------------------
			     We Are Broken - Paramore
-------------------------------------------------------------------------------


Tuning:Drop-D
This track is from Paramore's new album Riot! and i hope you guys like it,please rate 
and if you have any comments or sugestions please e-mail me.

  Verse 1.1 x4(Start on 00:14)
G|---------------------------------------------------------------------------------|
D|---------------------------------------------------------------------------------|
A|2~-1~----------------------------------------------------------------------------|
D|------1~-4~----------------------------------------------------------------------|
 Pre-Chorus
G|-----------------------------------------------------------------------------------|
D|--11-9-4~--------------------------------------------------------------------------|
A|---------2~-4~-6-8-----------------------------------------------------------------|
D|9----------------------------------------------------------------------------------|
 Chorus x2
G|--------------------|
D|--------------------|
A|-----9999-44446688--|
D|9999----------------|
 Chorus Ending
G|---------------------------------------------------------------------------------------|
D|---------------------------------------------------------------------------------------|
A|---------------------------------------------------------------------------------------|
D|9~-8~-4~-6~-4~-------------------------------------------------------------------------|

 Verse x4
G|-----------------------------------------------------------------------------------|
D|----024-----420--------------------------------------------------------------------|
A|2-2-----1-1------------------------------------------------------------------------|
D|----------------1-1-4-4------------------------------------------------------------|

Pre-Chorus
G|-----------------------------------------------------------------------------------|
D|--11-9-4~--------------------------------------------------------------------------|
A|---------2~-4~-6-8-----------------------------------------------------------------|
D|9----------------------------------------------------------------------------------|

Chorus x2
G|--------------------|
D|--------------------|
A|-----9999-44446688--|
D|9999----------------|
 Chorus Ending
G|---------------------------------------------------------------------------------------|
D|---------------------------------------------------------------------------------------|
A|---------------------------------------------------------------------------------------|
D|9~-8~-4~-6~-4~-------------------------------------------------------------------------|
 Bridge x2
G|--------------------|
D|--------------------|
A|--------------------|
D|4444-2222-99999999--|
 Hayley sings alone then bass builds up(Comes in at 2:51)
G|---------------------------------------------------------------------------------------|
D|---------------------------------------------------------------------------------------|
A|---------------------------------------------------------------------------------------|
D|44444444-4~----------------------------------------------------------------------------|

Chorus x2
G|--------------------|
D|--------------------|
A|-----9999-44446688--|
D|9999----------------|
 Chorus Ending
G|---------------------------------------------------------------------------------------|
D|---------------------------------------------------------------------------------------|
A|---------------------------------------------------------------------------------------|
D|9~-8~-4~-6~-4~-------------------------------------------------------------------------|


| /  slide up
| \  slide down
| h  hammer-on
| p  pull-off
| ~  vibrato
| +  harmonic
| x  Mute note
===============================================================================
            
Hard to play? Try these video lessons and learn fast. | Correct




comments powered by Disqus
↑ Back to top | Tablatures and chords are parodies/interpretations of the original songs. You may use it for private study, scholarship, research or language learning purposes only