» » »

Paramore, Thats What You Get Tabs (ver.1)

Artists:  A B C D E F G H I J K L M N O P Q R S T U V W X Y Z # 

Thats What You Get Tabs (ver.1)

Paramore Tabs
 Rating:
4/5 (4 votes)
Thats What You Get lessons Tabs too difficult? Try these video lessons and learn fast
1
                                                       song 'Thats What You Get'
                                    artists PARAMORE
                                     album  RIOT!

i did this tab by myself so it might not be all correct, but it sounds
alright to me.

                     Intro
e|-----------------------------------------------------------|
B|-----------------------------------------------------------|
G|--5-5-5xxx-5-5-5xxx-7-7-7xxx-121212-10---------------------|<<<---2 times
D|--x-x-xxxx-x-x-xxxx-x-x-xxxx-x-x-x---x---------------------|
A|--6-6-6xxx-6-6-6xxx-8-8-8xxx-101010-10---------------------|
E|--4-4-4xxx-4-4-4xxx-6-6-6xxx-8-8-8--8----------------------|


                     VERSE 1
 
e|------------------------------------------------------------|
B|------------------------------------------------------------|
G|------------------------------------------------------------|
D|------------------------------------------------------------|
A|------------------------------------------------------------|
E|--4-4-4--4-4-4--6-6-6--8-8-8---4-4-4--4-4-4--6-6-6--8-8-8---|
    * * *  * * *  * * *  * * *   * * *  * * *  * * *  * * *

e|------------------------------------------------------------|
B|------------------------------------------------------------|
G|--5-5-5xxx-5-5-5xxx-7-7-7xxx-121212-10----------------------|
D|--x-x-xxxx-x-x-xxxx-x-x-xxxx-x-x-x---x----------------------|
A|--6-6-6xxx-6-6-6xxx-8-8-8xxx-101010-10----------------------|
E|--4-4-4xxx-4-4-4xxx-6-6-6xxx-8-8-8--8-----------------------|


e|---------------------------------------------------------------------|
B|---------------------------------------------------------------------|
G|---------------------------------------------------------------------|
D|--------------------------------------------------------------8~-----|
A|--------------------------------------------------------------6~-----|
E|--4-4-4--4-4-4--6-6-6--8-8-8---4-4-4--4-4-4--6-6-6--8-8-8-----6~-----|
    * * *  * * *  * * *  * * *   * * *  * * *  * * *  * * *



                      CHORUS
e|------------------------------------------------------------|
B|------------------------------------------------------------|
G|------------------------------------------------------------|
D|---66666666-88888888-1010101010101010-88888888--------------|
A|---66666666-66666666-1010101010101010-88888888--------------|
E|---44444444-66666666-8-8-8-8-8-8-8-8--66666666--------------|

e|------------------------------------------------------------|
B|------------------------------------------------------------|
G|------------------------------------------------------------|
D|---66666666-88888888-8888888888888888-----------------------|
A|---66666666-66666666-8888888888888888-----------------------|
E|---44444444-66666666-6666666666666666-----------------------|

e|------------------------------------------------------------|
B|------------------------------------------------------------|
G|------------------------------------------------------------|
D|--1010101010101010-88888888-1010101010101010-88888888-------|
A|--1010101010101010-88888888-1010101010101010-88888888-------|
E|--8-8-8-8-8-8-8-8--66666666-8-8-8-8-8-8-8-8--66666666-------|

e|------------------------------------------------------------|
B|------------------------------------------------------------|
G|------------------------------------------------------------|
D|---66666666-88888888-8888888888888888-----------------------|
A|---66666666-66666666-8888888888888888-----------------------|
E|---44444444-66666666-6666666666666666-----------------------|

                      INTRO
e|------------------------------------------------------------|
B|------------------------------------------------------------|
G|--5-5-5xxx-5-5-5xxx-7-7-7xxx-121212-10----------------------|< < 2 times
D|--x-x-xxxx-x-x-xxxx-x-x-xxxx-x-x-x---x----------------------|
A|--6-6-6xxx-6-6-6xxx-8-8-8xxx-101010-10----------------------|
E|--4-4-4xxx-4-4-4xxx-6-6-6xxx-8-8-8--8-----------------------|

                      VERSE 2
e|--------------------------------------------|              e|---------|
B|--------------------------------------------|              b|---------|
G|--------------------------------------------|< < 4 times   g|---------|
D|--------------------------------------------|     then > > d|---8~----|
A|--------------------------------------------|              a|---6~----|
E|--4-4-4--4-4-4--6-6-6--8-8-8----------------|              e|---6~----|
    * * *  * * *  * * *  * * *   
    
                      BACK TO CHORUS
                      VERSE 2
                      INTRO
                    THEN...
e|-------------------------------------------|
B|-------------------------------------------|
G|-------------------------------------------|
D|--10101010101010101010101010101010---------|
A|--10101010101010101010101010101010---------|
E|--8-8-8-8-8-8-8-8-8-8-8-8-8-8-8-8----------|
    * * * * * * * * 

                    CHORUS
          THEN...
e|----------------------------------------------|
B|----------------------------------------------|
G|--5-5-5xxx-5-5-5xxx---------------------------|
D|--x-x-xxxx-x-x-xxxx-8-8-8~--------------------|
A|--6-6-6xxx-6-6-6xxx-6-6-6~--------------------|
E|--4-4-4xxx-4-4-4xxx-6-6-6~--------------------|


tell me what you think
            
Submit corrections

comments powered by Disqus
↑ Back to top | Paramore Tabs for Thats What You Get. Lyrics for acoustic guitar and electric guitar. 1 Tablatures and chords are parodies/interpretations of the original songs. You may use it for private study, scholarship, research or language learning purposes only