» » »

Paramore, Sunday Bloody Sunday Tabs (ver.2)

Artists:  A B C D E F G H I J K L M N O P Q R S T U V W X Y Z # 

Sunday Bloody Sunday Tabs (ver.2)

Paramore Tabs
 Rating:
4/5 (4 votes)
Sunday Bloody Sunday lessons Tabs too difficult? Try these video lessons and learn fast
                Esta es mi primeta Tab, y creo que esta correcta, para cualquier petición o 
correccion, contactenme... 


Intro & 1 Verso
|------------------------------|
|------------------------------|
|------------------------------|
|--8-8-88/11-1111-11/4-4-44444-|
|--8-8-88/11-1111-11/4-4-44444-|
|--6-6-66/9--9-9--9-/2-2-22222-| 


|------------------------|
|------------------------|
|------------------------|
|--11-8-11-8--8-8-8-8-8--|
|--11-8-11-8--8-8-8-8-8--|
|--9--6-9--6--6-6-6-6-6--|


|------------------------------|
|------------------------------|
|------------------------------|
|--8-8-88/11-1111-11/4-4-44444-|
|--8-8-88/11-1111-11/4-4-44444-|
|--6-6-66/9--9-9--9-/2-2-22222-| x5


Coro:

Gtr 1
|------------------------------|
|------------------------------|
|------------------------------|
|--8-8-88/11-1111-11/4-4-44444-|
|--8-8-88/11-1111-11/4-4-44444-|
|--6-6-66/9--9-9--9-/2-2-22222-| x3 


|------------------|
|------------------|
|------------------|
|---8-6-4---8-6-4--|
|---8-6-4---8-6-4--|
|---6-4-2---6-4-2--|


Gtr 2
|-------14-----------14-----------14------------14-----|
|-11-14----14-----14----14----14------14-----14----14--|
|--------------13-----------11------------13-----------|
|------------------------------------------------------|
|------------------------------------------------------|
|------------------------------------------------------|

Verso 2: 
|------------------------------|
|------------------------------|
|------------------------------|
|--8-8-88/11-1111-11/4-4-44444-|
|--8-8-88/11-1111-11/4-4-44444-|
|--6-6-66/9--9-9--9-/2-2-22222-| x3

Coro x1

Bridge

|------------------------------|
|------------------------------|
|------------------------------|
|--8-8-88/11-1111-11/4-4-44444-|
|--8-8-88/11-1111-11/4-4-44444-|
|--6-6-66/9--9-9--9-/2-2-22222-| x6

Coro x1

|------------------|
|------------------|
|------------------|
|---8-6-4---8-6-4--|
|---8-6-4---8-6-4--|
|---6-4-2---6-4-2--|
            
Submit corrections

comments powered by Disqus
↑ Back to top | Paramore Tabs for Sunday Bloody Sunday. Lyrics for acoustic guitar and electric guitar. Tablatures and chords are parodies/interpretations of the original songs. You may use it for private study, scholarship, research or language learning purposes only