» » »

Paramore, Now Tabs (ver.3)

Artists:  A B C D E F G H I J K L M N O P Q R S T U V W X Y Z # 

Now Tabs (ver.3)

Paramore Tabs
 Rating:
4/5 (4 votes)
Now lessons Tabs too difficult? Try these video lessons and learn fast
                Please Rate, this is my first tab and I hope you like it (:


Main Riff (DON'T TRY TO TAKE THIS FROM ME, DON'T TRY TO TAKE THIS FROM ME! Ah ah ah)

e|--------------------------------|-----------------------------------|
B|--------------------------------|-----------------------------------|
G|--------------------------------|-----------------------------------|x4
D|--5/14-14-14-14---5-14-14-14-14-|-----------------------------------|
A|--5/14-14-14-14---5/14-14-14-14-|-------------------5-5-5-----------|
E|--5/12-12-12-12---5/12-12-12-12-|--5-5/8-8-8-5-5-5--------8-8-5-5-5-|



Bridge (Lost the battle… win the war)

e|------------------------------|---7~---8~----10/12~---12br13~-------|
B|------------------------------|-------------------------------------|
G|-----4~---5~----7/9~--9br10---|-------------------------------------|
D|-----x----x-----x-x---x-------|-------------------------------------|
A|-----2~---3~----5/7~--7br8----|-------------------------------------|
E|------------------------------|-------------------------------------|


Chorus (If there’s a future we want it, Now ow ow ow ow ow ow ow)

e|-------------------|-----------------|-----------------|-----------------|
B|-------------------|-----------------|-----------------|-----------------|
G|---5-5-5-5-5-5-5-5-|-5-5-5-5---------|-----------------|-----------------|
D|---5-5-5-5-5-5-5-5-|-5-5-5-5-5-5-5-5-|-7-7-7-7-7-7-7-7-|-7-7-7-7-7-7-7-7-|
A|---3-3-3-3-3-3-3-3-|-3-3-3-3-5-5-5-5-|-7-7-7-7-7-7-7-7-|-7-7-7-7-7-7-7-7-|
E|-------------------|---------3-3-3-3-|-5-5-5-5-5-5-5-5-|-5-5-5-5-5-5-5-5-|

e|-------------------|-----------------|-----------------|-----------------|
B|-------------------|-----------------|-----------------|-----------------|
G|---5-5-5-5-5-5-5-5-|-5-5-5-5---------|-----------------|-----------------|
D|---5-5-5-5-5-5-5-5-|-5-5-5-5-5-5-5-5-|-7-7-7-7-7-7-7-7-|-3-3-3-3-3-3-3-3-|
A|---3-3-3-3-3-3-3-3-|-3-3-3-3-5-5-5-5-|-7-7-7-7-7-7-7-7-|-3-3-3-3-3-3-3-3-|
E|-------------------|---------3-3-3-3-|-5-5-5-5-5-5-5-5-|-1-1-1-1-1-1-1-1-|

(Repeat Chorus)
____________________________________________________________________________

Main Riff (Again)


Bridge (Again)


Chorus (Again)


Bass And Voice (Guitar Plays the Bridge)


_____________________________________________________________________________

References:

/:  Slide down
br: Bend Released
            
Submit corrections

comments powered by Disqus
↑ Back to top | Paramore Tabs for Now. Lyrics for acoustic guitar and electric guitar. Tablatures and chords are parodies/interpretations of the original songs. You may use it for private study, scholarship, research or language learning purposes only