» » »

Paramore, Never Let This Go Tabs (ver.1)

Artists:  A B C D E F G H I J K L M N O P Q R S T U V W X Y Z # 

Never Let This Go Tabs (ver.1)

Paramore Tabs
 Rating:
4/5 (4 votes)
Never Let This Go lessons Tabs too difficult? Try these video lessons and learn fast
1
                Intro

guitar1
E|---2--2--4--4--2--2--2--2---|
B|--0--0--0--0--0--0--0--0----|
G|-3--3--3--3--3--3--3--3-----|
D|----------------------------|(2x)
A|----------------------------|
E|----------------------------|

guitar2
    Eb F  B
E|--------------|
B|--------------|
G|--8--11-4-----|strum these chords when guitar 1 repeats it's riff
D|--8--11-4-----|
A|--6--9--2-----|
E|--------------|

Verse

guitar1
E|--2---------------------|
B|---0-0-0-0-0-0-0--------|
G|------3---3---3---------|repeat this over and over again
D|------------------------|
A|------------------------|
E|------------------------|

E|-2---------4------------|
B|--0-0-(4x)--0-0-(4x)----|
G|---3---------3----------|do this during the ending of the verse
D|------------------------|
A|------------------------|
E|------------------------|

guitar2
E|--------------------|
B|--7-6---------------|
G|-----66-------------|insert this whenever you hear it
D|-------6-8----------|
A|--------------------|
E|--------------------|

Chorus

guitars1&2

    Eb F  B  Eb C# B
E|-------------------|
B|-------------------|
G|--8--11-4--8--6--4-| just strum these chords 
D|--8--11-4--8--6--4-|
A|--6--9--2--6--4--2-|
E|-------------------|

guitar1
  
E|--------------|
B|--------------|
G|--2---4---0---|insert this whenever you hear it
D|--------------|
A|--------------|
E|--------------|

(do verse)

(do chorus)

Pre-solo

guitar 2
    Eb F  B
E|--------------|
B|--------------|
G|--8--11-4-----|
D|--8--11-4-----|(2x)
A|--6--9--2-----|
E|--------------|

guitar1
E|---2--2--4--4--2--2--2--2---|
B|--0--0--0--0--0--0--0--0----|
G|-3--3--3--3--3--3--3--3-----|do this when guitar2 repeats it's part
D|----------------------------|
A|----------------------------|
E|----------------------------|


Solo

guitar1
E|-------2222--------------222244222222--------|
B|---------------------------------------------|
G|---3344----33441111--3344--------------------|
D|---------------------------------------------|
A|---------------------------------------------|
E|---------------------------------------------|

E|-------2222----------------------------------|
B|---------------------------------------------|
G|---3344----33441111--------------------------|
D|--------------------4444-6666-8888-----------|
A|---------------------------------------------|
E|---------------------------------------------|

E|-------2222--------------222244222222--------|
B|---------------------------------------------|
G|---3344----33441111--3344--------------------|
D|---------------------------------------------|
A|---------------------------------------------|
E|---------------------------------------------|

E|-------2222----------------------------------|
B|---------------------------------------------|
G|---3344----33441111--------------------------|
D|--------------------4~-----------------------|
A|---------------------------------------------|
E|---------------------------------------------|

guitar2

    Eb F  B  
E|-----------|
B|-----------|
G|--8--11-4--| (2x)
D|--8--11-4--|
A|--6--9--2--|
E|-----------|


Post-solo

guitar2
    Eb F  B  Eb C# B
E|-------------------|
B|-------------------|
G|--8--11-4--8--6--4-| 
D|--8--11-4--8--6--4-|
A|--6--9--2--6--4--2-|
E|-------------------|

guitar1

E|--------------|
B|--------------|
G|--2---4---0---|do this when final chorus begins
D|--------------|
A|--------------|
E|--------------|

Final Chorus

guitar2

    Eb F  B  Eb C# B
E|-------------------|
B|-------------------|
G|--8--11-4--8--6--4-| 
D|--8--11-4--8--6--4-|(2x)
A|--6--9--2--6--4--2-|
E|-------------------|

guitar1
E|--------------|
B|--------------|
G|--2---4---0---|do this whenever necessary
D|--------------|
A|--------------|
E|--------------|

both guitars
    Eb C# B
E|----------|
B|----------|
G|--8--6--4-| 
D|--8--6--4-|
A|--6--4--2-|
E|----------|

end~!


i changed everything except for the chords..

my past tab of this was terrible...too many errors..


anyway...i'm 100% sure that this tab is accurate now...


it took me also a long time to update this tab coz i just learned how to update them =)

~seb...

hi pla s mga adik s paramore s pisay bikol...kung meron p..
            
Submit corrections

comments powered by Disqus
↑ Back to top | Paramore Tabs for Never Let This Go. Lyrics for acoustic guitar and electric guitar. 1 Tablatures and chords are parodies/interpretations of the original songs. You may use it for private study, scholarship, research or language learning purposes only