» » »

Monster Tabs (ver.7)

Artists:  A B C D E F G H I J K L M N O P Q R S T U V W X Y Z # 

Monster Tabs (ver.7)

Paramore
Rating:
0/5 (0 votes)

Hard to play? Try these video lessons and learn fast.
                intro x4
e|-------7~----7~-------7---------7------|
B|---8---------8~---------8~--------10~--|
G|-9---9-------9~------------------------|
D|---------------------------------------|
A|---------------------------------------|
E|---------------------------------------|

verse

rhythm guitar
e|---------------------------------------|
B|---------------------------------------|
G|---------------------------------------|
D|--22---------------222-----------------|
A|--22---------------222-----------------|
E|--00---------------000-----------------|

lead guitar
e|---------1212---------------1212-------|
B|---------1212---------------1212-------|
G|---------1212---------------1212-------|
D|---------------------------------------|
A|---------------------------------------|
E|---------------------------------------|

chorus

rhythm guitar
e|---------------------------------------|
B|---------------------------------------|
G|-9---------12-------11-------16--------|
D|-x-(x16)----x-(x6)---x-(x6)---x-(x2)---|
A|-7---------10--------9-------14--------|
E|---------------------------------------|

lead guitar
e|-----------------------12~----------------------------------|
B|-----14~------14~-----------14----14~-----------------------|
G|-11~------11~------13----------13-----(x3)----11~------13~--|
D|------------------------------------------------------------|
A|------------------------------------------------------------|
E|------------------------------------------------------------|

intro
verse
chorus

solo
e|----------------------------------------------------------------------|
B|----------------------------------------------------------------------|
G|-9/11-11-11------9-9-9------------------------------------------------|
D|------------11~--------9~------------11--------------------11---------|
A|----------------------------12-12-12-----12-12-12-12-12-12----12~-----|
E|----------------------------------------------------------------------|

e|---------------------------------|
B|---------------------------------|
G|-9/11-11-11-----11/13-13-13------|
D|------------11~-------------13~--|
A|---------------------------------|
E|---------------------------------|

e|-----------------------------------------------------|
B|-----------------------------------------------------|
G|-------13----14----13----14----13----14/16-16-16-14~-|
D|-11/12----12----12----12----12----12-----------------|
A|-----------------------------------------------------|
E|-----------------------------------------------------|

e|--------------------------------------------------------------------------|
B|----15-----------18~---15-14--------15----------18~---15-14---------------|
G|-14----14~----14-----------------------14----14---------------------------|
D|-----------------------------16~------------------------------------------|
A|--------------------------------------------------------------------------|
E|--------------------------------------------------------------------------|

e|-----------------------------|
B|-----------------------------|
G|-----------------------18(x4)|
D|-16(x4)--18(x4)--19(x4)------|
A|-----------------------------|
E|-----------------------------|

e|-----------------------------|
B|------------------------17~--|
G|-----------------------------|
D|-16(x4)--18(x4)--19(x4)------|
A|-----------------------------|
E|-----------------------------|


verse (x2)
chorus (x2)
            
Hard to play? Try these video lessons and learn fast. | Correct




comments powered by Disqus
↑ Back to top | Tablatures and chords are parodies/interpretations of the original songs. You may use it for private study, scholarship, research or language learning purposes only