» » »

Ignorance Bass tabs (ver.2)

Artists:  A B C D E F G H I J K L M N O P Q R S T U V W X Y Z # 

Ignorance Bass tabs (ver.2)

Paramore
Rating:
0/5 (0 votes)

Hard to play? Try these video lessons and learn fast.
                -----------------------------------------------------------------------------
			     IGNORANCE - Paramore
-----------------------------------------------------------------------------

Tuning: Drop D

intro
G|--------------------------------------|
D|--------------------------------------|
A|--------------------------------------|
D|12\--12--12--12\--12-12---12\--12--12-|

G|-------------|
D|-------2h4---|
A|--5544-------|
D|-------------|

G|------------------------------------------------------------------|
D|---------------------------------------------------------------2h4|
A|22-22-2--------22-22-2---------------------------22-22-2-55-44----|
D|-------00-00-0--------00-00-0-55-55-5h7-44-44-4-------------------|


Verse bass comes in at "where's your gavel"
G|-----------------------------------------------------|
D|-----------------------------------------------------|
A|22-22--22-22--22-22--22-22---------------------------|
D|---------------------------22-22--22-22--55-55--44-44|

"Don't wanna hear your sad songs"
G|---------------------------------------------|---------------------------|
D|-----2h4p2------2h4p2------2h4p2------2h4p2--|---------------------------|
A|22-2------0-22-2-----0-22-2-----0-22-2-----0-|---------------------------|
D|---------------------------------------------|22-22--22-22--55-55--55-55-|x2

this part can also be played this way. whichever way is easier for you.
it's the same notes, just higher on the neck.
G|----------------------------------------------------|
D|----------------------------------------------------|
A|-----7h9p7-0------7h9p7-0------7h9p7-0-----7h9p7-0--|
D|99-9---------99-9---------99-9--------99-9----------|

G|---------------|
D|---------------|
A|---------------|
D|0-0---0-0--05--|

chorus "well you treat me just like another stranger"
G|-------------------------------------------------------------------|
D|----------------------------------------------------------------2h4|
A|-22-22-2---------22-22-2------------------------------------5544---|
D|---------00-00-0---------00-00-0-55555h7p544444444-55555555--------|

G|---------------------------------------------------------------------|
D|------------------------------------------------------------------2h4|
A|22222222---------22222222------------------------------------5544----|
D|--------00000000---------00000000-55555h7p544444444-55555555---------|

Verse "this is the best thing"
G|-----------------------------------------------------|
D|-----------------------------------------------------|
A|22-22--22-22--22-22--22-22---------------------------|
D|---------------------------22-22--22-22--55-55--44-44|x2

"Don't wanna hear your sad songs"
G|---------------------------------------------|---------------------------|
D|-----2h4p2------2h4p2------2h4p2------2h4p2--|---------------------------|
A|22-2------0-22-2-----0-22-2-----0-22-2-----0-|---------------------------|
D|---------------------------------------------|22-22--22-22--55-55--55-55-|x2

G|---------------|
D|---------------|
A|---------------|
D|0-0---0-0--05--|

chorus "well you treat me just like another stranger"
G|--------------------------------------------------------------------|
D|-----------------------------------------------------------------2h4|
A|-22-22-2---------22-22-2------------------------------------5544----|
D|---------00-00-0---------00-00-0-55555h7p544444444-55555555---------|

G|---------------------------------------------------------------------|
D|------------------------------------------------------------------2h4|
A|22222222---------22222222------------------------------------5544----|
D|--------00000000---------00000000-55555h7p544444444-55555555---------|

"ignorance is your new best friend..."
G|----------------------------------|
D|----------------------------------|
A|2--------------2------------------|
D|-----2----5--------2-----5-55-5-55|

guitar solo
G|-------------------------------------------------------------------|
D|-------------------------------------------------------------------|
A|2222222222222222---------00000000-2222222222222222--------00000000-|
D|----------------55555555--------------------------55555555---------|

G|----------|
D|----------|
A|----------|
D|2-2---22-5|

G|---------------|
D|---------------|
A|---------------|
D|0-0---0-0--05--|

outro chorus x2
G|---------------------------------------------------------------------|
D|------------------------------------------------------------------2h4|
A|22222222---------22222222------------------------------------5544----|
D|--------00000000---------00000000-55555h7p544444444-55555555---------|
            
Hard to play? Try these video lessons and learn fast. | Correct




comments powered by Disqus
↑ Back to top | Tablatures and chords are parodies/interpretations of the original songs. You may use it for private study, scholarship, research or language learning purposes only