» » »

Franklin Bass tabs (ver.2)

Artists:  A B C D E F G H I J K L M N O P Q R S T U V W X Y Z # 

Franklin Bass tabs (ver.2)

Paramore
Rating:
0/5 (0 votes)
Tabs too difficult? Try these video lessons and learn fast.
                hi there! this is my first tab.
pls. rate...

tuning: drop d
#s in (), you may or may not include it.. it's just for style


Verse

D-----------4-------------------------|
A---1---4-------4--3------------------|  (x4)
D-------------------------------------|
G-------------------------------------|

Chorus

D---4---------------------------------|
A-------1---3---4---------------------| (x3)
D-------------------------------------|
G-------------------------------------|

last set is:
D---4--------6------------------------|
A-------1-----------------------------|
D-------------------------------------|
G-------------------------------------|

end of chorus

D----4-----1--------------------------|
A-------------------------------------|
D-------------------------------------|
G-------------------------------------|

2nd verse
same set with the first but the last set is like this:

D----1--------------------------------|
A--------4------------4--3------------|
D------------5s6--4-------------------|
G-------------------------------------|

Chorus

D---4---------------------------------|
A-------1---3---4---------------------|
D-------------------------------------|
G-------------------------------------|

end of chorus

D----4----1--1------------------------|
A-------------------------------------|
D-------------------------------------|
G-------------------------------------|


bridge:
(i'm not sure of this)

D----4---0--4h6s8----4----------------|
A-------------------------------------|
D-------------------------------------|
G-------------------------------------|

D----2---4--6--4----------------------|
A-------------------------------------|
D-------------------------------------|
G-------------------------------------|

D----6h8s10------------------4--(6-4)-|
A------------7s8-6--(6)-8--4h6--------|
D-------------------------------------|
G-------------------------------------|

last chorus

D---4---------------------------------|
A-------1---3---4---------------------|
D-------------------------------------|
G-------------------------------------|
                                          they alternate until the last
D---4---1-----------------------------|
A-------------------------------------|
D-------------------------------------|
G-------------------------------------|

you may end in
D---4-------------|
A-----------------|
D-----------------|
G-----------------|
or NOT...


that's it...
i hope you like it!
            
Tabs too difficult? Try these video lessons and learn fast.


comments powered by Disqus
↑ Back to top | Tablatures and chords are parodies/interpretations of the original songs. You may use it for private study, scholarship, research or language learning purposes only