>
 >
For A Pessimist Im Pretty Optimistic 3

For A Pessimist Im Pretty Optimistic 3 Bass Tabs

Paramore - For A Pessimist Im Pretty Optimistic 3 chords, tabs, tablatures, lyrics

Guitar lessons | Add/correct | Request | Top 50 tabs Artists:  A B C D E F G H I J K L M N O P Q R S T U V W X Y Z 0-9

For A Pessimist Im Pretty Optimistic 3 Bass Tabs – Paramore

CD, Sheet music, Poster

Do you like For A Pessimist Im Pretty Optimistic 3? Share with your friends now
Bass TabsBass Tabs v2Bass Tabs v3Bass Tabs v4ChordsChords v2Chords v3Chords v4TabsTabs v2Tabs v3Tabs v4Tabs v5Tabs v6Tabs v7Ukulele

I am pretty sure that this tab is at least 98% correct. I've listened to it 
carefully and I've watched live versions of this song. Please rate and comment. Enjoy!

Tuning: Db,Ab,Db,Gb (Drop D then half a step down)

Intro:

Gb|-----------------------------|-----------------------------------|
Db|-----------------------------|-----------------------------------|    x2
Ab|--3333-----------------------|--3333--------------7--9-----------|
Db|-------555555-2222-000000----|-------555555-0000-----------------|

Verse:

Gb|-------------------------------------------------------------|
Db|-------------------------------------------------------------|
Ab|-------------------------------------------------------------|
Db|--5~-------10101010101010101010/5~-------101010101010101010--|
  |                                                             |
Gb|-------------------------------------------------------------|  
Db|-------------------------------------------------------------|
Ab|-------------------------------------------------------------|
Db|--55--5-55-555-555-5/77-777-777-777-7/22~---------0-0~---------|

Pre Chorus:

Gb|---------------------------|------------------------|
Db|---------------------------|------------------------|
Ab|--0--0-2--2-3--3-5---------|------------------------|  
Db|---------------------------|--2--2-4--4-5--5-7--7---| 

Chorus:

Gb|------------------------------|------------------------------|
Db|------------------------------|------------------------------|
Ab|--333333-555555---------------|--333333--------555555555555--|
Db|----------------222222222222--|---------555555---------------|

Gb|------------------------------|----------------------------|
Db|------------------------------|----------------------------|
Ab|--333333-555555---------------|--333333-555555-------------|
Db|----------------222222222222--|----------------55-5-0-0-0--|

Interlude:

Gb|-----------------------------|-----------------------------------|
Db|-----------------------------|-----------------------------------|
Ab|--3333-----------------------|--3333--------------7--9-----------|
Db|-------555555-2222-000000----|-------555555-0000-----------------|


Verse:


Gb|-------------------------------------------------------------|
Db|-------------------------------------------------------------|
Ab|-------------------------------------------------------------|
Db|--5~-------10101010101010101010/5~-------101010101010101010--|
  |                                                             |
Gb|-------------------------------------------------------------|  
Db|-------------------------------------------------------------|
Ab|-------------------------------------------------------------|
Db|--55--5-55-555-555-5/77-777-777-777-7/22---------0-0-0-------|

Pre Chorus:

Gb|---------------------------|----------------------------------|
Db|---------------------------|----------------------------------|
Ab|--0--0-2--2-3--3-5---------|----------------------------------|  
Db|---------------------------|--22222222/44444444/55555555/7~---| 


Chorus:

Gb|------------------------------|------------------------------|
Db|------------------------------|------------------------------|
Ab|--333333-555555---------------|--333333--------555555555555--|
Db|----------------222222222222--|---------555555---------------|

Gb|------------------------------|----------------------------|
Db|------------------------------|----------------------------|
Ab|--333333-555555---------------|--333333-555555-------------|
Db|----------------222222222222--|----------------55-5-0-0-0--|


Interlude:

Gb|-----------------------------|-----------------------------------|
Db|-----------------------------|-----------------------------------|    
Ab|--3333-----------------------|--3333--------------7--9-----------|
Db|-------555555-2222-000000----|-------555555-0000-----------------|


Bridge:

Gb|-----------------------------------|
Db|-----------------------------------|
Ab|------------------333322220000-----|
Db|--2222222244445555------------4444-|
  |
Gb|-----------------------------------|------------------------|
Db|-----------------------------------|------------------------|
Ab|------------------333322220000-----|-------------3--2--0----|
Db|--1111222244445555------------4444-|--1--2--4--5---------4--|
  | 
Gb|-----------------------------------|
Db|-----------------------------------|
Ab|-------------3--2--0---------------|
Db|--1--2--4--5---------4--5~---------|

Pre Chorus:

Gb|-----------------------------|-----------------------------------|
Db|-----------------------------|-----------------------------------| 
Ab|--3333-----------------------|--3333--------------7--9-----------|
Db|-------555555-2222-000000----|-------555555-0000-----------------|

Chorus:

Gb|------------------------------|------------------------------|
Db|------------------------------|------------------------------|
Ab|--333333-555555---------------|--333333-555555---------------|
Db|----------------222222222222--|----------------555555555555--|

Gb|------------------------------|----------------------------|
Db|------------------------------|----------------------------|
Ab|--333333-555555---------------|--333333--------555555-7-9--|
Db|----------------222222222222--|---------555555-------------|

Gb|----------------------|----------------------|
Db|----------------------|----------------------|
Ab|--3333-5555-----------|--3333-5555-----------|
Db|------------22222222--|------------55555555--|



Outro:

Gb|-----------------|
Db|-----------------|
Ab|-----------------|  Let ring
Db|--2-------0------|

Well, thats it. Check out the song for the exact timing. It's quite to get it 
right on tab. Please rate and comment. I welcome any suggestions or/and corrections. :-D





Comments


Popular Paramore tabs & chords
Daydreaming 2 Chords
Fences 2 Chords
Sunday Bloody Sunday Chords
All I Wanted 2 Tabs
All We Know 5 Tabs
Careful Tabs
Hallelujah 6 Tabs
Here We Go Again 6 Tabs
All I Wanted Ukulele
Playing God Ukulele


Song lyrics



↑ Back to top | Tablatures and chords are parodies/interpretations of the original songs. You may use it for private study, scholarship, research or language learning purposes only
© 2014 AZChords.com Contact us | Privacy policy | DMCA | Add/correct tabs | Request tabs | Top 50 tabs