» » »

Emergency Tabs (ver.4)

Artists:  A B C D E F G H I J K L M N O P Q R S T U V W X Y Z # 

Emergency Tabs (ver.4)

Paramore
Rating:
0/5 (0 votes)

Tabs too difficult? Try these video lessons and learn fast.
                -------------------------------------------------------------------------------
                    Emergency (acoustic) - Paramore
-------------------------------------------------------------------------------


Tuning:Drop D

Intro-
GtrI
|---------9-----9-----9------------7-----7-----7---------|
|-----------7-----7-----7---7---7-----7-----7-----7----7-|
|------9-----9------9-----9---9---9-----9-----9------9---|
|-----0--------------------------------------------------|2x
|-----0--------------------------------------------------|
|-----0--------------------------------------------------|

GtrI
|------------------------------------------------------------|
|------------------------------------------------------------|
|-9/11-111111--11-11-11-11/999--9/11-111111--11-11-11-11/999-|
|-x-x--x-x-x---x--x--x--x--xxx--x-x--x-x-x---x--x--x--x--xxx-|
|-7/9--9-9-9---9--9--9--9/-777--7/9--9-9-9---9--9--9--9/-777-|
|------------------------------------------------------------|

Gtr II
|------------------------------------------------------------|
|------------------------------------------------------------|
|------------------------------------------------------------|
|-2h4--444---4--4--4--4---222----2h4--444---4--4--4--4---222-|
|-2h4--444---4--4--4--4---222----2h4--444---4--4--4--4---222-|
|-2h4--444---4--4--4--4---222----2h4--444---4--4--4--4---222-|

Verse-
GtrI
|---------9-----9-----9-----------7-----7-----7----------|
|-----------7-----7-----7---7---7----7-----7-----7-----7-|
|------9------9-----9-----9---9---9-----9------9----9----|2x
|-----0--------------------------------------------------|
|-----0--------------------------------------------------|
|-----0--------------------------------------------------|

GtrI and II
|------------------------------------------------------------|
|------------------------------------------------------------|
|------------------------------------------------------------|
|-2h4--444---4--4--4--4---222----2h4--444---4--4--4--4---222-|
|-2h4--444---4--4--4--4---222----2h4--444---4--4--4--4---222-|
|-2h4--444---4--4--4--4---222----2h4--444---4--4--4--4---222-|

Refrain-
   (5x)      (5x)
 /------\  /------\
|-0---------0----------|
|---0---------0--------|
|-----4---------2------|(2x)
|----------------------|
|----------------------|
|----------------------|

Gtr I and II
|--------------------------------------------------------------------|
|--------------------------------------------------------------------|
|-4444-6666----------------------------------------------------------|
|-xxxx-xxxx----------------------------------------------------------|
|-2222-4444----------------------------------------------------------|
|--------------------------------------------------------------------|

Chorus-
GtrI
|--------------------------------------------------------------------|
|--------------------------------------------------------------------|
|--------------------------------------------------------------------|
|-9999999-0000000-4444444-777777----9999999-0000000-4444444-2222222--|
|-9999999-0000000-4444444-777777----9999999-0000000-4444444-2222222--|
|-9999999-0000000-4444444-777777----9999999-0000000-4444444-2222222--|

Verse-
GtrI
|---------9-----9-----9------------7-----7-----7---------|
|-----------7-----7-----7---7---7----7-----7-----7-----7-|
|------9------9-----9-----9---9---9-----9-----9------9---|
|-----0--------------------------------------------------|
|-----0--------------------------------------------------|
|-----0--------------------------------------------------|

GtrI and II
|------------------------------------------------------------|
|------------------------------------------------------------|
|------------------------------------------------------------|
|-2/4--444---4--4--4--4---222----2/4--444---4--4--4--4---222-|
|-2/4--444---4--4--4--4---222----2/4--444---4--4--4--4---222-|
|-2/4--444---4--4--4--4---222----2/4--444---4--4--4--4---222-|

Refrain-

Chorus-

Intro-

Refrain-

Solo-
|-----------------------------------------9---------9-------|
|-------9-10-9-------------9-10-9----9--12---12---12---10-9-|
|-----9--------9~--------9--------9~-----------9------------|
|-7-9----------------7-9------------------------------------|
|-----------------------------------------------------------|
|-----------------------------------------------------------|

|----------------------9-12----------17-16--------17-16-------------|
|-------9-10-9----9-12-------10------------17-15--------16-14-14-13-|
|-----9--------9~---------------------------------------------------|
|-7-9---------------------------------------------------------------|
|-------------------------------------------------------------------|
|-------------------------------------------------------------------|
play the last note of the solo about seven times

Intro-

Final Chorus-
|-x-xxx-xx-|
|-x-xxx-xx-|
|-x-xxx-xx-|play this right before the 3rd chorus 
|-x-xxx-xx-|
|-x-xxx-xx-|
|-x-xxx-xx-|

Chorus-

Outro-
GtrI
|---------9-----9-----9------------7-----7-----7----------------|
|-----------7-----7-----7---7---7----7-----7-----7--------------|
|------9------9-----9-----9---9---9-----9-----9------9----------|
|-----0-----------------------------------------------------4---|
|-----0-----------------------------------------------------4---|
|-----0-----------------------------------------------------4---|

GtrII
|---------------------------------------------------------------|
|---------------------------------------------------------------|
|---------------------------------------------------------------|
|--0-----0-----0-----0-----0-----0------0------0------0-----4---|
|--0-----0-----0-----0-----0-----0------0------0------0-----4---|
|--0-----0-----0-----0-----0-----0------0------0------0-----4---|



| /  slide up
| \  slide down
| h  hammer-on
| p  pull-off
| ~  vibrato
| +  harmonic
| x  Mute note
===============================================================================
            
Tabs too difficult? Try these video lessons and learn fast.




comments powered by Disqus
↑ Back to top | Tablatures and chords are parodies/interpretations of the original songs. You may use it for private study, scholarship, research or language learning purposes only