» » »

Paramore, Breathe Tabs (ver.1)

Artists:  A B C D E F G H I J K L M N O P Q R S T U V W X Y Z # 

Breathe Tabs (ver.1)

Paramore Tabs
Rating:
1/5 (1 vote)
Hard to play? Try these video lessons and learn fast.
                1Verse:  I climb...
|-5------------0---------------|
|---0-7-0-3-0------------------|
|------------------------------|
|------------------------------|
|------------------------------|
|------------------------------|     Repeat 

|-5--------9-7-----------------|
|---0-7-0----------------------|
|------------------------------|
|------------------------------|
|------------------------------|
|------------------------------|   (last One)

2Verse: And I, I will.
|------------------------------|
|------------------------------|
|--5-6-4-5---------------------| 
|-----------7-5-0--------------| 
|------------------------------| 
|------------------------------|       Repeat 

|------------------------------|
|------------------------------|
|--5-6-4-5---------------------| 
|-----------7-5-9-7------------|
|------------------------------| 
|------------------------------|   (last one)
 

Chorus: Breathe... 

G                D
Breathe for love tomorrow
Bm                   Am7
Cause there's no hope for today
G                D
Breathe for love tomorrow
Bm                   Am7
Cause maybe there's another way


Solo: 
G , D , Bm , Am7  x2

Chorus: ...  x2

Verse1: ... 

Thx! 
rate , favorite , and comment.
[ if u need help, or u have any prob, comment and i'll reply ..Thx again]
            

comments powered by Disqus
↑ Back to top | Paramore Tabs for Breathe. Lyrics for acoustic guitar and electric guitar. Tablatures and chords are parodies/interpretations of the original songs. You may use it for private study, scholarship, research or language learning purposes only