» » »

Brand New Eyes Tabs (ver.1)

Artists:  A B C D E F G H I J K L M N O P Q R S T U V W X Y Z # 

Brand New Eyes Tabs (ver.1)

Paramore
Rating:
0/5 (0 votes)

Hard to play? Try these video lessons and learn fast.
                (Intro)

This is the Intro Paramore played to start out their shows on the Brand New Eyes Tour.  

A lot of Delay and Reverb are used.


4/4  Tuning - Drop D

e-
B-
G-
D-
A-
D-




e |----------------------------------------|  x4
B |----------------------------------------|
G |----10---------10--------6--------------|
D |-------11---------13-------6-4-----3-4-3|
A |----------------------------------------|
D |--8---------10---------4---------1------|


e |--------------------------------------------------------------------------------------------x1
B |----------------------------------------------------------------------------------------------|
G |-------10-10-10-10----------10-10-10-10-----------6-6-6-6-------------------------------------|
D |-------------------11--------------------13---------------6-6-6--4-------3-3-3-3-4-4-4-3------|
A |----------------------------------------------------------------------------------------------|
D |--8--8-----------------10--10-----------------4--4------------------1--1----------------------|


e |--------------------------------------------------------------------------------------------x1
B |----------------------------------------------------------------------------------------------|
G |-------10-10-10-10----------10-10-10-10------13-----6-6-6-6-----------------------------------|
D |-------------------11--------------------13-----------------6-6-6--4-------3-3-3-3-4-4-4-3----|
A |----------------------------------------------------------------------------------------------|
D |--8--8-----------------10--10-------------------4--4------------------1--1--------------------|


e |----------------------------------------|  x2
B |----------------------------------------|
G |----10---------10--------6--------------|
D |-------11---------13-------6-4-----3-4-3|
A |----------------------------------------|
D |--8---------10---------4---------1------|


e |------------------------------------|  x1
B |------------------------------------|
G |----10---------10--------6----------|
D |-------11---------13-------6-4------|
A |------------------------------------|
D |--8---------10---------4---------1--|



e |--------------------------------------------------------------------------------------------x1
B |----------------------------------------------------------------------------------------------|
G |-------10-10-10-10----------10-10-10-10-----------6-6-6-6-------------------------------------|
D |-------------------11--------------------13---------------6-6-6--4-------3-3-3-3-4-4-4-3------|
A |----------------------------------------------------------------------------------------------|
D |--8--8-----------------10--10-----------------4--4------------------1--1----------------------|


e |--------------------------------------------------------------------------------------------x1
B |----------------------------------------------------------------------------------------------|
G |-------10-10-10-10----------10-10-10-10------13-----6-6-6-6-----------------------------------|
D |-------------------11--------------------13-----------------6-6-6--4-------3-3-3-3-4-4-4-3----|
A |----------------------------------------------------------------------------------------------|
D |--8--8-----------------10--10-------------------4--4------------------1--1--------------------|



After that it's mostly inaudible but your best bet would be to harmonize this 
progression with power chords or octave chords.

Bb/A#  C   Gb/F#   Db
            
Hard to play? Try these video lessons and learn fast. | Correct




comments powered by Disqus
↑ Back to top | Tablatures and chords are parodies/interpretations of the original songs. You may use it for private study, scholarship, research or language learning purposes only