>
 >
Born For This 3

Born For This 3 Bass Tabs

Paramore - Born For This 3 chords, tabs, tablatures, lyrics

Guitar lessons | Add/correct | Request | Top 50 tabs Artists:  A B C D E F G H I J K L M N O P Q R S T U V W X Y Z 0-9

Born For This 3 Bass Tabs – Paramore

CD, Sheet music, Poster

Do you like Born For This 3? Share with your friends now
Bass TabsBass Tabs v2Bass Tabs v3Bass Tabs v4Bass Tabs v5ChordsChords v2Chords v3Chords v4TabsTabs v2Tabs v3Tabs v4Tabs v5Tabs v6Ukulele
F#|-----------------------------------------------------------------|
C#|-----------------------------------------------------------------|
G#|-2-2-2---2-2-2-0---0-0---0-0-0---5-5-5---5-5-5-7---7-7---7h9p7---|
C#|-----------------------------------------------------------------|

F#|-----------------------------------------------------------------|
C#|-----------------------------------------------------------------|
G#|-2-2-2---2-2-2-0---0-0---0-0-0---5-5-5---5-5-5-7---7-7-5-7-9-7-5-|
C#|-----------------------------------------------------------------|

0:12
F#|------------------------------------------------------------|
C#|--------------------------------------------4-4-2-2---------|
G#|-0-2--------2-----------0-2---2-----2-5---5---------5-5-4-4-|
C#|--------------5---5-4-----------2---------------------------|

0:24
F#|----------------------------------------------------------|
C#|------------------------------------------4-4-4-4-4-2-0-4-|
G#|-2--------2-----------0-2---2-----2-5---------------------|
C#|------------5---5-4-----------2---------------------------|

0:33
F#|------------------------------------------------------------------|
C#|------------------------------------------------------------------|
G#|------------2-----------------------------------------------------|
C#|-2---------------------5----------2-2---2-2---2-2---2-2---2---2---|

F#|------------------------------------------------------------------|
C#|------------------------------------------------------------------|
G#|------------------------------------------------------------------|
C#|-7-7---7-7---7-7---7-7---7---7---9-\---------------9-\------------|

0:52
F#|------------------------------------------------------------------|
C#|------------------------------------------------------------------|
G#|------------------------------------------------------------------|
C#|-5------------5-0-0-0-0-0-0-0-0-0h4-4-4-4-4-4-4-4-5---------------|

F#|-------------------------------------------------------------------|
C#|-------------------------------------------------------------------|
G#|-0-2-2-2-2-2-2-2-2-0-0-0-0-0-0-0-0---------------------------------|
C#|-----------------------------------5-5-5-5-5-5-5-5-5-5-5-5-5-5-5-7-|

F#|-----------------------------------------------------------------|
C#|-----------------------------------------------------------------|
G#|-----------------------------------------------------------------|
C#|-0-0-0-0-0-0-0-0-4-4-4-4-4-4-4-4-5-5-5-5-5-5-5-5-5-5-5-5-5-5-5-5-|

F#|------------------------------------------|
C#|------------------------------------------|
G#|-2-2-2-2-2-2-2-2-0-0-0-0-0-0-0-0----------|
C#|---------------------------------5--------|

Rest

1:20
F#|---------------------------------------|
C#|-----------------------4-4-2-2---------|
G#|-0-0-2---2-----2-5---5---------5-5-4-4-|
C#|-----------2---------------------------|

F#|----------------------------------------------------------|
C#|------------------------------------------4-4-4-4-4-2-0-4-|
G#|-2--------2-----------0-2---2-----2-5---------------------|
C#|------------5---5-4-----------2---------------------------|

1:36
F#|--------------------------------------------------------------------|
C#|--------------------------------------------------------------------|
G#|--------------------------------------------------------------------|
C#|-2-------2-/-9-----------5----------2-2---2-2---2-2---2-2---2---2---|

F#|------------------------------------------------------------------|
C#|------------------------------------------------------------------|
G#|------------------------------------------------------------------|
C#|-7-7---7-7---7-7---7-7---7---7---9-\---------------9-\------------|

1:53
F#|-------------------------------------------------------------------------------|
C#|-------------------------------------------------------------------------------|
G#|-2-2-2-2-2-2-2-----/-10-\------------------------------------------------------|
C#|---------------5-\--------------5-0-0-0-0-0-0-0-0-0-4-4-4-4-4-4-4-4-5----------|

F#|---|------------------------------------------------------------------|
C#|---|o-----------------------------------------------------------------|
G#|-0-|o-2-2-2-2-2-2-2-2-0-0-0-0-0-0-0-0---------------------------------|
C#|---|----------------------------------5-5-5-5-5-5-5-5-5-5-5-5-5-5-5-7-|

F#|------------------------------------------------------------------|
C#|-----------------------------------------------------------------o|
G#|-----------------------------------------------------------------o|
C#|-0-0-0-0-0-0-0-0-4-4-4-4-4-4-4-4-5-5-5-5-5-5-5-5-5-5-5-5-5-5-5-5--|

F#|-----------------------------------|
C#|-----------------------------------|
G#|-2-2-2-2-2-2-2-2-0-0-0-0-0-0-0-----|
C#|-----------------------------------|

Rest

2:28
F#|-----------------------------------------------------------------|
C#|-----------------------------------------------------------------|
G#|-2-2-2---2-2-2-0---0-0---0-0-0---5-5-5---5-5-5-7---7-7---7h9p7---|
C#|-----------------------------------------------------------------|

F#|-----------------------------------------------------------------|
C#|-----------------------------------------------------------------|
G#|-2-2-2---2-2-2-0---0-0---0-0-0---5-5-5---5-5-5-7---7-7-5-7-9-7-5-|
C#|-----------------------------------------------------------------|

2:39
F#|------------------------------------------------------------------------|
C#|------------------------------------------------------------------------|
G#|--------0------2---------------------0------2--------------------0------|
C#|-5--------------------2------5---------------------2------5-------------|

F#|-----------------------------------------------------------------|
C#|-----------------------------------------------------------------|
G#|-----------------------------------------------------------------|
C#|-5-5-5-5-5-5-5-5-5-5-5-5-5-5-5-5-4-4-4-4-4-4-4-4-4-4-4-4-4-4-4-4-|

Rest

3:12
F#|----------------------------------------------|
C#|----------------------------------------------|
G#|-2--------------------------------------------|
C#|---0-0-0-0-0-0-0-0-4-4-4-4-4-4-4-4-5----------|

F#|---|------------------------------------------------------------------|
C#|---|o-----------------------------------------------------------------|
G#|-0-|o-2-2-2-2-2-2-2-2-0-0-0-0-0-0-0-0---------------------------------|
C#|---|----------------------------------5-5-5-5-5-5-5-5-5-5-5-5-5-5-5-7-|

F#|------------------------------------------------------------------|
C#|-----------------------------------------------------------------o|
G#|-----------------------------------------------------------------o|
C#|-0-0-0-0-0-0-0-0-4-4-4-4-4-4-4-4-5-5-5-5-5-5-5-5-5-5-5-5-5-5-5-5--|

3:38
F#|-----------------------------------------------------------------|
C#|-----------------------------------------------------------------|
G#|-2-2-2-2-2-2-2-2-0-0-0-0-0-0-0-0---------------------------------|
C#|---------------------------------5-5-5-5-5-5-5-5-5-5-5-5-5---5---|

F#|------------------------------|
C#|------------------------------|
G#|-2-----------------0---2------|
C#|--------2------5--------------|





Comments


Popular Paramore tabs & chords
Turn It Off Bass Tabs
I Caught Myself 2 Chords
In The Mourning 1 Chords
Interlude Holiday 1 Chords
Monster 3 Chords
Oh Star 1 Chords
Born For This 5 Tabs
I Caught Myself 4 Tabs
Misery Business 10 Tabs
Misguided Ghosts 1 Tabs


Song lyrics



↑ Back to top | Tablatures and chords are parodies/interpretations of the original songs. You may use it for private study, scholarship, research or language learning purposes only
© 2014 AZChords.com Contact us | Privacy policy | DMCA | Add/correct tabs | Request tabs | Top 50 tabs