» » »

Bne Tour Bass tabs (ver.1)

Artists:  A B C D E F G H I J K L M N O P Q R S T U V W X Y Z # 

Bne Tour Bass tabs (ver.1)

Paramore
Rating:
0/5 (0 votes)

Hard to play? Try these video lessons and learn fast.
                (Intro)
-------------------------------------------------------------------------------
-------------------------------------------------------------------------------


Tuning: Drop D


But I guess that all of them are the same.

After the intro
G|----------------------------------------------------------------------------|
D|----------------------------------------------------------------------------|
A|----------------8-10--------------------------------------1/777-999-777-8899|
D|8-8-888-2-88-8-2------6-666-66-6-6--2-4-4-444-44-4-2-1-1-3------------------|2x

Verse: And the scales beneath your skin...
G|----------------|
D|----------------|
A|----------------|
D|8~/-6~/--4~/--1~|

G|----------------------------------------------------------------------------|
D|----------------------------------------------------------------------------|
A|----------------8-10--------------------------------------1/777-999-777-8899|
D|8-8-888-2-88-8-2------6-666-66-6-6--2-4-4-444-44-4-2-1-1-3------------------|2x

Chorus
Gb|-------------------------------------------------------------|
Db|-------------------------------------------------------------|
Ab|-------------------------------------------------88-66-888-66|
Db|8-8-8888-2-888-6-6-6666-2-66-2-4-4--444-2-44-1-1-------------|2x

Outro
G|----------------|
D|----------------|
A|----------------|
D|8~/-6~/--4~/--1~|2x

Then jump to Ignorance directly after the outro. 
            
Hard to play? Try these video lessons and learn fast. | Correct




comments powered by Disqus
↑ Back to top | Tablatures and chords are parodies/interpretations of the original songs. You may use it for private study, scholarship, research or language learning purposes only