» » »

Paramore, Adore Tabs (ver.1)

Artists:  A B C D E F G H I J K L M N O P Q R S T U V W X Y Z # 

Adore Tabs (ver.1)

Paramore Tabs
Rating:
5/5 (2 votes)
Adore lessons Tabs too difficult? Try these video lessons and learn fast
                tuning-( e b g d A E )

Intro-

|-14-14-14-12-12-12-14-14-14-12-12-12--|
|-15-15-15-15-15-15-15-15-15-15-15-15--|
|--------------------------------------|
|--------------------------------------|
|--------------------------------------|
|--------------------------------------|
Verse-
GtrI
|-2-2-2-2-2-0-0-0-0-0--2-2-2-2-2-0-0-0-0-0--2-2-2-2-2-0-0-0-0-0-|
|-3-3-3-3-3-3-3-3-3-3--3-3-3-3-3-3-3-3-3-3--3-3-3-3-3-3-3-3-3-3-|
|-2-2-2-2-2-2-2-2-2-2--2-2-2-2-2-2-2-2-2-2--2-2-2-2-2-2-2-2-2-2-|
|-0-0-0-0-0-x-x-x-x-x--0-0-0-0-0-x-x-x-x-x--0-0-0-0-0-x-x-x-x-x-|
|-x-x-x-x-x-x-x-x-x-x--x-x-x-x-x-x-x-x-x-x--x-x-x-x-x-x-x-x-x-x-|
|-x-x-x-x-x-3-3-3-3-3--x-x-x-x-x-3-3-3-3-3--x-x-x-x-x-3-3-3-3-3-|

|-x-x-xxx-x-xx----------|
|-3-3-333-3-33----------|
|-2-2-222-2-22----------|
|-x-x-xxx-x-xx----------|
|-2-2-222-0-00----------|
|-----------------------|

verse2
GtrI
|-2-2-2-2-2-0-0-0-0-0--2-2-2-2-2-0-0-0-0-0--2-2-2-2-2-0-0-0-0-0-|
|-3-3-3-3-3-3-3-3-3-3--3-3-3-3-3-3-3-3-3-3--3-3-3-3-3-3-3-3-3-3-|
|-2-2-2-2-2-2-2-2-2-2--2-2-2-2-2-2-2-2-2-2--2-2-2-2-2-2-2-2-2-2-|
|-0-0-0-0-0-x-x-x-x-x--0-0-0-0-0-x-x-x-x-x--0-0-0-0-0-x-x-x-x-x-|
|-x-x-x-x-x-x-x-x-x-x--x-x-x-x-x-x-x-x-x-x--x-x-x-x-x-x-x-x-x-x-|
|-x-x-x-x-x-3-3-3-3-3--x-x-x-x-x-3-3-3-3-3--x-x-x-x-x-3-3-3-3-3-|

|-x-x-xxx-x-xx----------|
|-3-3-333-3-33----------|
|-2-2-222-2-22----------|
|-x-x-xxx-x-xx----------|
|-2-2-222-0-00----------|
|-----------------------|

GtrII
|---------------------------------------------------------------|
|---------------------------------------------------------------|
|--999/777---999/777--999/777--11-11-111111--14-14-14-----------|
|--xxx-xxx---xxx-xxx--xxx-xxx--x--x--x-x-x---x--x--x------------|
|--777/555---777/555--777/555--9--9--9-9-9---12-12-12-----------|
|---------------------------------------------------------------|

refrain-
GtrI
|---------------------------------------------------------------|
|---------------------------------------------------------------|
|----------------------------------------55552222---------------|
|-44444444-22222222-------------44444444-55552222---------------|
|-44444444-22222222-------------44444444-33330000---------------|
|-22222222-00000000-------------22222222------------------------|
  ******** ********             ********
GtrII enters
|--------------------------------|-------------------------------|
|--------------------------------|-------------------------------|
|--121212/111111-7/6-666-6/7-77--|-777/999/111111-11/12----------|
|--x-x-x--x-x-x--x-x-xxx-x-x-xx--|-xxx-xxx-x-x-x---x--x----------|
|--101010/9-9-9--5/4-444-4/5-55--|-555/777/9-9-9---9/10----------|
|--------------------------------|-------------------------------|


Chorus-
GtrI
|---------------------------------------------|
|---------------------------------------------|
|-77777777--99999999------------x-333-5555----|
|-77777777--99999999-555555555--x-333-5555----|2x
|-55555555--77777777-555555555--x-111-3333----|
|--------------------333333333--x-------------|
GtrII
|------5-------5---------5---------5------------5---------5-----|
|-5--------5--------5---------5----------5-----------5----------|
|----7---7---7---7-----7---7----7-----7------7----7-----7-----7-|
|---------------------------------------------------------------|continued
|---------------------------------------------------------------|
|---------------------------------------------------------------|

then

|-14-14-14-12-12-12--|
|-15-15-15-15-15-15--|
|--------------------|
|--------------------|
|--------------------|
|--------------------|

do verse2 2x and refrain

gtr I
|---------------------------------------------------------------|
|---------------------------------------------------------------|
|-4444444------4444444--------4444444-------555-----------------|
|-4444444------4444444--------4444444-------555----555555-------|
|-2222222------2222222--------2222222-------333----555555-------|
|--------------------------------------------------333333-------|


GtrII
|---------------12~----14/15\14--9~------10/12\10--17~----------|
|---------------------------------------------------------------|
|------11/12\11-------------------------------------------------|
|---------------------------------------------------------------|
|-------9/10\-9-------------------------------------------------|
|---------------------------------------------------------------|


chorus
|----------------------------------------------|
|----------------------------------------------|
|-77777777--99999999-------------x-333-5555----|
|-77777777--99999999-xx55555555--x-333-5555----|2x
|-55555555--77777777-xx55555555--x-111-3333----|
|--------------------xx33333333--x-------------|

GtrII
|------------------------5---------5------------5---------5-----|
|-------------------5---------5----------5-----------5----------|
|----------------------7---7----7-----7------7----7-----7-----7-|
|---------------------------------------------------------------|continued
|---------------------------------------------------------------|
|---------------------------------------------------------------|

end with

|-----------------------|
|-----------------------|
|-----------------------|
|----------5~-----------|
|-5h7-5-0--5~-----------|
|----------3~-----------|
            
Submit corrections

comments powered by Disqus
↑ Back to top | Paramore Tabs for Adore. Lyrics for acoustic guitar and electric guitar. Tablatures and chords are parodies/interpretations of the original songs. You may use it for private study, scholarship, research or language learning purposes only