» » »

Hiling Tabs (ver.5)

Artists:  A B C D E F G H I J K L M N O P Q R S T U V W X Y Z # 

Hiling Tabs (ver.5)

Paramita
Rating:
0/5 (0 votes)

Tabs too difficult? Try these video lessons and learn fast.
                Intro:
E|-------------------------------------------------------------------|
B|-------------------------------------------------------------------|
G|---10-10-10-9-9-9-7-7-7-5-5-5-----------10-10-10-9-9-9-5-5-5-------|
D|---10-10-10-9-9-9-7-7-7-5-5-5------(3x)-10-10-10-9-9-9-5-5-5-------|
A|---10-10-10-9-9-9-7-7-7-5-5-5-5h4-------10-10-10-9-9-9-5-5-5-------|
E|-------------------------------------------------------------------|

Solo:
E|-------------------------------------------------------------------|
B|-------------------------------------------------------------------|
G|-----------5s7--5--4-----------------------------------------------|
D|------5-7-------------5---(2x)-------------555-444-----------------|
A|--5-7--------------------------------5-7-5---------55--------------|
E|---------------------------------5-7-------------------------------|

E|-----------------------------------------------------------------------|
B|-----------------------------------------------------------------------|
G|-----------5s7--5--4-------------------5s7-5-4-------------------------|
D|------5-7-------------5--------------5-------------5-7-9-7-5-555-44-55-|
A|--5-7-------------------5-7------5-7-----------5-7---------------------|
E|-----------------------------------------------------------------------|


hehe!!sa wakas!!hello!! to my bandmates gian,amil,jr......invite nyo na lang
            
Tabs too difficult? Try these video lessons and learn fast.




comments powered by Disqus
↑ Back to top | Tablatures and chords are parodies/interpretations of the original songs. You may use it for private study, scholarship, research or language learning purposes only