» » »

Paramita, Hiling Tabs (ver.4)

Artists:  A B C D E F G H I J K L M N O P Q R S T U V W X Y Z # 

Hiling Tabs (ver.4)

Paramita Tabs
Rating:
0/5 (0 votes)
Hiling lessons Tabs too difficult? Try these video lessons and learn fast
                kahit c yun unang chord nyan.. asa G ata to eh

intro: C5 D5 E5 at G5
      or C9 Dsus Em/G ba yun? ung 330220. bsta un. di ko alm twag dn

eh. tapos G

e---------------------------------------------------------|
b---------------------------------------------------------| yung lead
g-----11-11-12-12-14-14-12-12-----------------------------|
d---------------------------------------------------------| diskartehan

nyo nlang
a--------------------------------------------------------- jan lang

umiikot yun
e---------------------------------------------------------

verse:
    c9    Dsus  tas un  G my plaucking pyan
e---3-------3------3----3--------------------------------------|
b---3-------3------3----3--------------------------------------|
g---0-------2------0----0--------------------------------------|
d---2--------------2----0--------------------------------------|
a---3--------------2----2--------------------------------------|
e---0--------------0----3--------------------------------------|

pero nkita ko prang dito kinuha ni Normz un plucking eh
   Em
e--7-------------------------------------------------------|
b--8-------------------------------------------------------|
g--9-------------------------------------------------------|
d--9-------------------------------------------------------|
a--7-------------------------------------------------------|
e--7-------------------------------------------------------|

tas dun na.. nanlalamig naba.. bsta dun

   C5 .    D5  .     E5  .   G5  .
e---------------------------------------------------------|
b-----3------------------3-------3------------------------|
g--5-------7---7------------------------------------------| yung mga D

notes nkpalm mute
d--5-------7---------2--------5---------------------------|
a--3-------5---------2--------5---------------------------|
e-----------------------------3---------------------------|


tapos
    G oct. D oct.  tapos
e---------------------------------------------------------|
b---------------------------------------------------------| tas yung

huli diskartehan
g--12----/19-----------12-11-9-7-7-7h9-7--ilang times-----|  nalang
d---x------x----------------------------------------------|
a--10----/17----------------------------------------------|
e---------------------------------------------------------|

-tas verse ulit-

tapos eto ulit:
kung ito ang iyong hiling..
     C5     D5      E5    G5
e---------------------------------------------------------|
b---------------------------------------------------------|
g---55------77--------------------------------------------|
d---55------77-----22-----55------------------------------|
a---33------55-----22-----55------------------------------|
e-------------------------33------------------------------|

ang tanging pakiusap lang... C5 D5 E5 at G5 parin

tas solo taym orayt!

e---------------------------------------------------------|
b-/15-15-13-13-12-12-10-10-------8---10--/12-10-----------|
g----------------------------7h9--------------------------|
d---------------------------------------------------------|
a---------------------------------------------------------|
e---------------------------------------------------------|

e---------------------------------------------------------|
b-----8-s10--8--------------------------------------------|
g-7h9----------------7-9-7--s12-12-12-11-11-11-7-7--------|
d----------------7h9--------------------------------------|
a---------------------------------------------------------|
e---------------------------------------------------------|

e---------------------------------------------------------|
b-----8 s15-13-12-10----s15-13-12-10-8----8-10-s12-10-8---|
g-7h9----------------11----------------11-----------------|
d---------------------------------------------------------|
a---------------------------------------------------------|
e---------------------------------------------------------|

e---------------------------------------------------------|
b---12-12-12-11-11-11-7--7--------------------------------|
g---------------------------------------------------------|
d---------------------------------------------------------|
a---------------------------------------------------------|
e---------------------------------------------------------|
orayt!

tas..
kung ito ang iyong hilig...
verse chords din yun C9 Dsus ung Em/G ata tas G

nanlalamig nabang.. C5 D5 E5 at G5

tas yunng lead sa outro


e---------------------------------------------------------|
b---------------------------------------------------------| diskartehan

nyo nalang
g---12-11-10-9-7------------------------------------------ kung pano

ippluk
d---------------------------------------------------------|
a---------------------------------------------------------|
e---------------------------------------------------------|
tas tataas ata yun eh.. di ko alam kung nkefex sya o octave

tapos yung tapos na.. kunin nyo nalang yung timing

   A5  B5  C5  D5   E5  F#5   E5
e---------------------------------------------------------|
b---------------------------------------------------------|
g--2---4----5---7---9----11----9--------------------------|
d--2---4----5---7---9----11----9-tas-paring mo------------|
a--0---2----3---5---7-----9----7--------------------------|
e---------------------------------------------------------|

questions.. hnapin nyo nlng ako sa frenster
orayt
            

comments powered by Disqus
↑ Back to top | Paramita Tabs for Hiling. Lyrics for acoustic guitar and electric guitar. Tablatures and chords are parodies/interpretations of the original songs. You may use it for private study, scholarship, research or language learning purposes only