» » »

Hiling Tabs (ver.3)

Artists:  A B C D E F G H I J K L M N O P Q R S T U V W X Y Z # 

Hiling Tabs (ver.3)

Paramita
Rating:
4/5 (1 vote)

Tabs too difficult? Try these video lessons and learn fast.
                Intro: C-D-Em-G
                                         3x
e |--------------------------------------------|
B |--------------------------------------------|
G |----11-12-14-121212-11-12-14-121212---------|
D |--------------------------------------------|
A |--------------------------------------------|
E |--------------------------------------------|
Verse:C-D-Em-G
nahihirapan na ang aking isip
nauubusan na ng sasabihin sa iyo..                              
Nanlalamig na ba ang pag-ibig mo sa akin giliw...
                         2x
e |-------------------------|
B |---8-7-----8-7-----8-7---|
G |-------7-------7-------7-|
D |-------------------------|
A |-------------------------|
E |-------------------------|

e |----------------------------------------------------10----|
B |---8888888888---------------------------------------------|
G |----------------------------------------------------------|
D |----------------------------------------------------------|
A |----------------------------------------------------------|
E |----------------------------------------------------------|
                         (3x)
e |-----------------------------------------|
B |--8-7-5-33h5-3-8-7-5-335h-3-8-7-5-33h5-3-|
G |-----------------------------------------|
D |-----------------------------------------|
A |-----------------------------------------|
E |-----------------------------------------|
Verse 2: C-D-Em-G
Nalilito ako Nais kong sagipin ang ating nalulunod na pag-ibigs
Ngunit handa akong palayain ka
                     
Chorus:  C-D-Em-G
Kung ito ang iyong hiling
Gaano man kasakit sa akin ibibigay sa iyo
Ang tanging pakiusap lang
Huwag mo akong kalimutan

Refrain: C-D-Em-G
Kay rami nang nagdaan na pagsubok sa ating pag-ibig
Kakayanin pa kayang mabawa pa ang mga nasabi na masasakit na salita Oh… Oh…
e |--------------------|
B |---11-12-14-121212--|
G |--------------------|
D |--------------------|
A |--------------------|
E |--------------------|
(2nd adlib)
e |---------------------------|
B |---1515-1313-1212-1010-----|
G |---------------------------|
D |---------------------------|
A |---------------------------|
E |---------------------------|

e |-----------------------------------------------------------|
B |----------------12-----------------------------------------|
G |---------12h14-----14-------12h14-1212---------------------|
D |----12h14-------------12h14------------------12h14-12------|
A |---------------------------------------12h14---------------|
E |-----------------------------------------------------------|


e|------------------------------------------------------------------------|
B|---------------------------------15-13-12----1515-13-1212---------12----|
G|----------------------------12h14--------1212------------121212h14--14--|
D|-171717-1616-1414-1212-12h14--------------------------------------------|
A|------------------------------------------------------------------------|
E|------------------------------------------------------------------------|

e |---------------------------|
B |---------------------------|
G |-12h14-12121212-1111-------|
D |------------------1212-----|
A |---------------------------|
E |---------------------------|


Kung ito ang iyong hiling gaano man kasakit sa akin ibibigay sa’yo
e |------------------------------------|
B |---8-77---8-77---7h88---7h88--------|
G |------------------------------------|
D |------------------------------------|
A |------------------------------------|
E |------------------------------------|
nanlalamig na ba ang pag-ibig mo?
Nanlalamig na ba ang pag-ibig mo?
e |------------------------------------|
B |------------------------------------|
G |--12-11-9-77h9--7-------------------|
D |------------------------------------|
A |------------------------------------|
E |------------------------------------|

d ku na po alam ung bandang dulo eh...bsta pag nakapa ku po popost ku ulit 
binabati ko ang mka21 ng dlsu dasma weeeeeee.....
            
Tabs too difficult? Try these video lessons and learn fast.




comments powered by Disqus
↑ Back to top | Tablatures and chords are parodies/interpretations of the original songs. You may use it for private study, scholarship, research or language learning purposes only