» » »

Hiling Bass tabs (ver.2)

Artists:  A B C D E F G H I J K L M N O P Q R S T U V W X Y Z # 

Hiling Bass tabs (ver.2)

Paramita
Rating:
0/5 (0 votes)

Hard to play? Try these video lessons and learn fast.
                Intro:

G|----------|----------|----------|----------|
D|----------|----------|----------|----------|
A|----------|----------|----------|----------|
E|-88888888-|-77777777-|-55555555-|-77777777-|

G|----------|----------|----------|----------|
D|----------|----------|----------|----------|
A|----------|----------|----------|----------|
E|-88888888-|-77777777-|-55555555-|-7~-------|

I

Nahihirapan na ang  aking              isip.                  Nauubusan. . .
G|-----------------|------------------|---------------|-----------|
D|-----------------|------------------|---------------|-5---x4454-|
A|-3------x323--x3-|-5------x535---x5-|-7---x757---x7-|-----------|
E|-----------------|------------------|---------------|-----------|

. . . na ng         sasabihin          sa iyo..              Nan- . . .
G|-----------------|------------------|---------------|-----------|
D|-----------------|------------------|---------------|-5---x4454-|
A|-3------x323--x3-|-5------x535---x5-|-7---x757---x7-|-----------|
E|-----------------|------------------|---------------|-----------|

. . . lala . . .    . . . mig na       ba ang pag-         ibig mo sa .....
G|-----------------|------------------|---------------|-----------|
D|-----------------|------------------|---------------|-5---x4454-|
A|-3------x323--x3-|-5------x535---x5-|-7---x757---x7-|-----------|
E|-----------------|------------------|---------------|-----------|

  'kin . . .                        gi . . .   				
G|------------------|------------------|
D|------------------|------------------|
A|-3------x323---x3-|-5------x535---x5-|
E|------------------|------------------|

. . . liw . . .
G|----------|-----------|----------|-----------|
D|----------|------5555-|-55555555-|-5555--/12-|
A|-77777777-|-7777------|----------|-----------|
E|----------|-----------|----------|-----------|
 
Ad Lib
                                                       Na . . .
G|---------------|---------------|---------------|----------|
D|---------------|---------------|-----------54--|----------|
A|-3-x3-x3-x3532-|-5-x5-x5-x5753-|-7-x7-x7-x7--7-|-5-x5-x5~-|
E|---------------|---------------|---------------|----------|

II

. . . lilito ako,        nais kong              sagipin ang ating nalulunod na pag-ibig
G|----------------------|----------------------|---------------------|-----------------|
D|----------------------|----------------------|---------------------|-5-x5-x5---x4454-|
A|-3-x3-x3----x323---x3-|-5-x5-x5----x535---x5-|-7-x7-x7---x757---x7-|-----------------|
E|----------------------|----------------------|---------------------|-----------------| 

nguni't             handa akong           palayain           ka
G|----------------------|----------------------|---------------------|-----------------|
D|----------------------|----------------------|---------------------|-5-x5-x5---x4454-|
A|-3-x3-x3----x323---x3-|-5-x5-x5----x535---x5-|-7-x7-x7---x757---x7-|-----------------|
E|----------------------|----------------------|---------------------|-----------------| 

kung ito ang 'yong hiling gaano man kasakit sa akin ibibigay sa yo
G|--------------|--------------|--------------|------------------|
D|--------------|--------------|----------54--|------------------|
A|-3-x3-x3-3532-|-5-x5-x5-5753-|-7-x7-x7-7--7-|-5-x5-x5---5h7p5--|
E|--------------|--------------|--------------|----------------7-|

Bridge:

ang tanging pakiusap lang wag mo akong kalimutan..
G|----------|----------|----------|----------|
D|----------|----------|----------|----------|
A|----------|----------|----------|----------|
E|-88888888-|-77777777-|-55555555-|-77777777-|

kay rami nang nagdaan na pagsubok sa ting pag-ibig
G|----------|----------|----------|----------|
D|----------|----------|----------|----------|
A|----------|----------|----------|----------|
E|-88888888-|-77777777-|-55555555-|-77777777-|

kakayanin pa kayang mabawi pa ang mga nasabi na masasakit . . .
G|----------|----------|----------|----------|
D|----------|----------|----------|----------|
A|----------|----------|----------|----------|
E|-88888888-|-77777777-|-55555555-|-77777777-|

. . . na salita     Wooooooohhhhh           (Guitar lead bwelo here)
G|----------|----------|----------|--------------|
D|----------|----------|----------|--------------|
A|----------|----------|----------|--------------|
E|-88888888-|-77777777-|-55555555-|-7-x7-x7-x7-7-|

Ad Lib 2:

G|--------------|--------------|--------------|--------------|
D|--------------|--------------|--------------|--------------|
A|--------------|-5-x5-x5-x5-5-|-7-x7-x7-x7-7-|--------------|
E|-8-x8-x8-x8-8-|--------------|--------------|-7-x7-x7-x7-7-| 

G|--------------|--------------|--------------|------------|
D|--------------|--------------|--------------|------------|
A|--------------|-5-x5-x5-x5-5-|-7-x7-x7-x7-7-|------------|
E|-8-x8-x8-x8-8-|--------------|--------------|-7-x7-x7~~~-| 

Outro:

kung ito ang yong hiling gaano man kasakit sa akin ibibigay sa yo . . .
G|--------------|--------------|--------------|------------|
D|--------------|--------------|--------------|------------|
A|--------------|--------------|--------------|------------|
E|--------------|--------------|--------------|------------| 

nanlalamig na bang pag-ibig mo?
G|----------|----------|----------|----------|
D|----------|----------|----------|----------|
A|----------|----------|----------|----------|
E|-88888888-|-77777777-|-55555555-|-77777777-| 4x

G|----------|----------|----------|----------|
D|----------|----------|----------|----------|
A|----------|----------|----------|----------|
E|-88888888-|-77777777-|-55555555-|-77777777-| 

G|----------|----------|----------|-------------|
D|----------|----------|----------|-------------|
A|----------|----------|----------|-------------|
E|-88888888-|-77777777-|-5-7-8-10-|-12-14-12~~~-|
            
Hard to play? Try these video lessons and learn fast. | Correct




comments powered by Disqus
↑ Back to top | Tablatures and chords are parodies/interpretations of the original songs. You may use it for private study, scholarship, research or language learning purposes only