» » »

Paramita, Hiling Bass tabs (ver.1)

Artists:  A B C D E F G H I J K L M N O P Q R S T U V W X Y Z # 

Hiling Bass tabs (ver.1)

Paramita Tabs
Rating:
5/5 (1 vote)
Hiling lessons Tabs too difficult? Try these video lessons and learn fast
                
Hello again to Mr.Marky 143...
 
I dedicated this song to Claris and her band members....hehe
Paki-intindi na lang ok??hehe....

Gtr.Legends:
~  let it ring

Gtr.Tuning:Standard(Normal)

Intro
G|--------------------------------------------|
D|--------------------------------------------|
A|-3333-2222-0000-2222----3333-2222-0000-2~---|
E|--------------------------------------------|

Verse 1:Nahihirapan na 
G|------------------------------------------------------      -----------------------------------------------------|
D|------------------------------------------------------ 3x   -----------------------------------------------------|
A|-33--3---3-----55---5---5----77--7---7----99--9----9-- Then -33--3---3---55--5---5--77777777-9999---------5555---|
E|-------5--------------7------------9------------10----      -------5-----------7-------------------333333--------|

Pre-Verse 2
G|---------------------------------------------------------------|
D|-----10-----10---------10--------12--------7-------------------|
A|--------8-----------------10-----------77----9--5---5--5--5~---|
E|-88-------8-------1010-------10--------------------------------|

Verse 2:Nalilito ako...
Play Verse 1

Chorus:Ang tanging paki-usap...
G|-------------------------------|
D|-------------------------------|
A|-333333-222222-000000-222222---|
E|-------------------------------|

Bridge:Gtr.Solo
Play Verse...

After Solo:Kung ito ang iyong....
G|--------------------------|
D|-10~----12~---14~---16~---|
A|--------------------------|
E|--------------------------|

Repeat Chorus:

Outro
G|------------------------------|
D|------------------------------|
A|-0~--2~--3~--5~--7~--9~--7~---|
E|------------------------------|

End...
            

comments powered by Disqus
↑ Back to top | Paramita Bass for Hiling. Lyrics for acoustic guitar and electric guitar. Tablatures and chords are parodies/interpretations of the original songs. You may use it for private study, scholarship, research or language learning purposes only