» » »

Paramita, Carousel I Miss You Tabs (ver.1)

Artists:  A B C D E F G H I J K L M N O P Q R S T U V W X Y Z # 

Carousel I Miss You Tabs (ver.1)

Paramita Tabs
 Rating:
4.2/5 (5 votes)
Carousel I Miss You lessons Tabs too difficult? Try these video lessons and learn fast
                next tab gagawin ko ung "The Indefinite Transition of Perceived Realities(remix)"


Message: Bago ang lahat merong Banda ngayon sa Cavite! 31st Lane!! Download
nyo songs nila Limewire! Download na! oki!

Hi! sa Bandang Fretsel! Ang Galing nio!!!


+++++++F-G-Am lang chords nito++++++++

Tuning: EADGBe

Intro: 2x
       F    G    Am
e |----3----3-----3---------------|
b |----1----1-----1---------------|
g |----2----0-----2---------------|
d |----3----0-----2---------------|
a |----x----2-----0---------------|
e |----x----3-----x---------------|


PAUSE!!


e |------------------------------------------------|
b |------------------------------------------------|
g |------------------------------------------------|
d |---5\7--5----5----------------------------------|
a |-----------7---7---5-7-5---3-5-3----------------|
e |---------------------------------5-3-5----------|



ADLIB! 2X

e |-------------------------------------------------------------|
b |---10-10\13-12-----10-10-------------------------------------|
g |---------------9-9---------12-12-10----10-10-9---9-9---------|
d |-----------------------------------------------------12------|
a |-------------------------------------------------------------|
e |-------------------------------------------------------------|

e |-------------------------------------------------------------|
b |-------------------------------------------------------------|
g |---------9-10-9----------------------------------------------|
d |---12-12-----------------------------------------------------|
a |-------------------------------------------------------------|
e |-------------------------------------------------------------|    


| /  slide up
| \  slide down
| h  hammer-on
| p  pull-off
| ~  vibrato
| * harmonic
| . Mute note
            
Submit corrections

comments powered by Disqus
↑ Back to top | Paramita Tabs for Carousel I Miss You. Lyrics for acoustic guitar and electric guitar. Tablatures and chords are parodies/interpretations of the original songs. You may use it for private study, scholarship, research or language learning purposes only