» » »

Paraluman, Tabi Tabs (ver.6)

Artists:  A B C D E F G H I J K L M N O P Q R S T U V W X Y Z # 

Tabi Tabs (ver.6)

Paraluman Tabs
 Rating:
4/5 (4 votes)
Tabi lessons Tabs too difficult? Try these video lessons and learn fast
                Sana mk2long...1st time q kc gumwa ng tab...qng my mli man e-mail nyo nlng aq sa 
pcnxa n qng mgulo..hehe..saka pki rate nlng poh....

Tabi-Paraluman ft. Kean

Intro:
Guitar1(acoustic)
E-A-D
Guitar 2
----12\0--|
----------|
----------|
----------|
----------|
----------|

-------------------------------------------------|
---------9-12------9-12--9------9------9---------|
----9-11------9-11---------11-9---11-9---11-9----|
-------------------------------------------------|2x
-------------------------------------------------|
-------------------------------------------------|
 sa ikalawang ulit ppsok ung guitar 3
Guitar 3
         * dpat sakto d2 ung ikalawang ulit
------------12-------|
----9-10-12----12----|
---------------------|
---------------------|repeat several times
---------------------|
---------------------|

Verse1:

E                        A        D
Naranasan mo na bang mawalan ng makakasama
----------------------|
---10-9---------------|
--------11-9----------|
-------------9/11-9---|
----------------------|
----------------------|

E                   A             D
Sa gitna ng daan, di mo alam ang pupuntahan
----------------------|
---10-9---------------|
--------11-9----------|
-------------9/11-9---|
----------------------|
----------------------|

Chorus:
------------12-------|
----9-10-12----12----|
---------------------|
---------------------|repeat several times
---------------------|
---------------------|
E                   A     D
Huwag mag-alala, di kita pababayaan

E
Sa Iyong tabi

A         D
Ako ay iyong mahahawakan

Repeat Intro:
Ung guitar 1 at 3 gnun parin
Ung guitar 2 nka light distortion lng

Verse 2:
E                      A            D
Naranasan mo na bang madapa at masugatan,
----------------------|
---10-9---------------|
--------11-9----------|
-------------9/11-9---|
----------------------|
----------------------|

E                A            D
Hawakan mo ko Hindi hindi pababayaan
----------------------|
---10-9---------------|
--------11-9----------|
-------------9/11-9---|
----------------------|
----------------------|

Chorus:
------------12-------|
----9-10-12----12----|
---------------------|
---------------------|repeat several times
---------------------|
---------------------|
E                   A     D
Huwag mag-alala, di kita pababayaan

E
Sa Iyong tabi

A         D
Ako ay iyong mahahawakan

ADLIB:F-B 3x then A-B
---------------------------------------------------------------------------------|
----11-9-11-9-11-9-11-9-9/14-12-7-9--9/11-11-9-11-9-11-9-11-9-9/14-12-15-14-14---|
---------------------------------------------------------------------------------|
---------------------------------------------------------------------------------|
---------------------------------------------------------------------------------|
---------------------------------------------------------------------------------|

-----------------------------------------------------------------------------------------|
----11-9-11-9-11-9-11-9-9/14-12-7-9--14-12-9----9-9-9-9-9-9-9-9-12-12-12-12-12-12-12-12\-|
---------------------------------------------9-------------------------------------------|
-----------------------------------------------------------------------------------------|
-----------------------------------------------------------------------------------------|
-----------------------------------------------------------------------------------------|

E                   A     D
Huwag mag-alala, di kita pababayaan

---------\12--12-------|
----/12---------9-10---|
-----------------------|
-----------------------|
-----------------------|
-----------------------|

E
Sa Iyong tabi
(pasok ung guitar 3)

A         D
Ako ay iyong mahahawakan
                 (bagsakan sa D)
(repeat chorus 2x)

Outro: E--A-D( 2x)
            
Submit corrections

comments powered by Disqus
↑ Back to top | Paraluman Tabs for Tabi. Lyrics for acoustic guitar and electric guitar. Tablatures and chords are parodies/interpretations of the original songs. You may use it for private study, scholarship, research or language learning purposes only