» » »

Paraluman, Tabi Tabs (ver.4)

Artists:  A B C D E F G H I J K L M N O P Q R S T U V W X Y Z # 

Tabi Tabs (ver.4)

Paraluman Tabs
Rating:
5/5 (3 votes)
Tabi lessons Tabs too difficult? Try these video lessons and learn fast
                Title             >>>>  Tabi
Artist            >>>>  Paraluman
Album             >>>>  Paraluman In-Lab



::::i dedic8 this song to TAPA!!!! hahaha!! mahal na mahal kita!!!!::::

for reactions, just send me a msg sa fs ko....

tuning: STANDARD




Intro: E-B(addE)-A4-Dsus2 (5x)

Guitar 1: (Delay)                 Guitar 2: (clean)
e------------7~----------------|-----------12-----12-----------------|
b--5~-7~--9~--------9~-7~-5~---|-9-10--12-----12---------------------|
g------------------------------|---------------------(continue 12x)--|
D------------------------------|-------------------------------------|
A------------------------------|-------------------------------------|
E------------------------------|-------------------------------------|

Verse:
 
E                B(addE)          A4        Dsus2              
Naranasan mo na bang mawalan ng makakasama

E              B(addE)         A4          Dsus2
Sa gitna ng daan, di alam ang pupuntahan


Chorus:

E            B(addE) A4        Dsus2 
Huwag mag-alala, hindi kita pababayaan
E          B(addE)
Sa Iyong tabi
A4              Dsus2
Ako ay iyong mahahawakan

Repeat Intro:

E               B(addE)       A4          Dsus2
Naranasan mo na bang madapa at masugatan,

E             B(addE)   A4          Dsus2 
Hawakan mo ako Hindi hindi iiwan

(chorus)

Adlib: F#-B 3x then A4--B

e----------------------9-7------|-----------------------9-7--/10-9--7---|
b-11p9-11p9-11p9----9------7-9--|-9/11p9-11p9-11p9---9------------------|
g-------------------------------|---------------------------------------|
D-------------------------------|---------------------------------------|
A-------------------------------|---------------------------------------|
E-------------------------------|---------------------------------------|

e----------------------9-7------|---9-7------|
b-11p9-11p9-11p9---9-------7-9--|-------9----|
g-------------------------------|---------9--|
D-------------------------------|------------|
A-------------------------------|------------|
E-------------------------------|------------|

e---------------------------------------------------------|
b-9-9-9-9-9-9-9-9/12-12-12-12-12-12-12-12-----------------|
g---------------------------------------------------------|
D---------------------------------------------------------|
A---------------------------------------------------------|
E---------------------------------------------------------|

(repeat chorus 2x)

Outro: E-B(addE)-A4-Dsus2
            
Submit corrections

comments powered by Disqus
↑ Back to top | Paraluman Tabs for Tabi. Lyrics for acoustic guitar and electric guitar. Tablatures and chords are parodies/interpretations of the original songs. You may use it for private study, scholarship, research or language learning purposes only