>
 >
Overtime

Overtime Chords

Paraluman - Overtime chords, tabs, tablatures, lyrics

Guitar lessons | Add/correct | Request | Top 50 tabs Artists:  A B C D E F G H I J K L M N O P Q R S T U V W X Y Z 0-9

Overtime Chords – Paraluman

CD, Sheet music, Poster

Do you like Overtime? Share with your friends now
ChordsUkulele
Title      :    Overtime
Artist     :    Paraluman
Album      :    Paraluman In Lab

For any Comments and Suggestions:



Tuning: Standard


Intro: D-A-G (4x)

G----------------------------------------------|
D----77-55-44-55-44-55-----77-55-44-55-44-55---|
A-55--------------------55---------------------|
E----------------------------------------------|


Guitar 1: (0:11)                         (0:23)(repeat many times)
e--------------------------------------|-12-12-10-10-9-9-10-10-12-12-10-10-|
b--------------------------------------|-----------------------------------|
g-7/9\7-6-6/7-7/9\7-6-6\7-7/9\7-6-6-/7-|-----------------------------------| 
D--------------------------------------|-----------------------------------|
A--------------------------------------|-----------------------------------|
E--------------------------------------|-----------------------------------|

Guitar 2:
e------------------------|
b------------------------|
g--77777-----------------|
D--77777--77777---55555--|
A--55555--77777---55555--|
E---------55555---33333--|
Verse:

D     A   G
Ilan oras na akong pikit mata

D     A   G
Pinipilit na limutin ka

D     A   G
Pagulong-gulong sa kama

D     A   G
Paulit-ulit na akong napahiya

<>Intro<>

Guitar 1:
e-12-12-10-10--9-9-10-10-12-12-10-10-9-10-10-|
b--------------------------------------------|
g--------------------------------------------|
D--------------------------------------------|
A--------------------------------------------|
E--------------------------------------------|

Guitar 2:
e------------------------|
b------------------------|
g--77777-----------------|
D--77777--77777---55555--|
A--55555--77777---55555--|
E---------55555---33333--|

D     A   G
Dumungaw na lang kaya sa binta

D     A   G
Make a wish upon a star na lang kaya

D     A   G
Kaialn kaya ako madadala
sa huli wala pa rin mapapala

Chorus:

E      Bm
Umaga na pala

C#m      A      B               Bm     C#m-A
Hindi na lang aasang managinip na kasama ka

E    Bm      C#m       A 
Magpatulog kana bumabagsak nang

E             Bm       C#m          A
mga mata sa kakaisip sa iyo wala naming magagwa

E-Bm-C#m-A
Magagawa, 


(repeat chorus)

E-Bm-C#m-A
Magagawa..

E-Bm-C#m-A
Magagawa.

(repeat chorus:

Outro:(Chorus Part)

Umaga na Pala....
e--12-9-7-9-7-9--12-9-7-9-7-9------------------------------|
b------------------------------1212-99-1010-1212-99-1010---|
g----------------------------------------------------------|
D----------------------------------------------------------|
A----------------------------------------------------------|
E----------------------------------------------------------|

e--12-9-7-9-7-9--12-9-7-9-7-9------------------------------|
b------------------------------1212-99-1010-1212-99-1010---|
g----------------------------------------------------------|
D----------------------------------------------------------|
A----------------------------------------------------------|
E----------------------------------------------------------|


*If you want to Learn How to Read Tabs Just Text me: 09082360710/09156169501
 

'=================='
/   RoCk En RoLL   \
'------------------'





Comments


Popular Paraluman tabs & chords
Tabi Bass Tabs
A Christmas Gift Chords
Maghanap Ng Iba 1 Chords
Tabi 2 Chords
Emily 1 Tabs
Tabi 2 Tabs
Emily Ukulele
In Lab Ukulele
Maghanap Ng Iba Ukulele
Tabi Ukulele


Song lyrics



↑ Back to top | Tablatures and chords are parodies/interpretations of the original songs. You may use it for private study, scholarship, research or language learning purposes only
© 2014 AZChords.com Contact us | Privacy policy | DMCA | Add/correct tabs | Request tabs | Top 50 tabs