» » »

Paradise Lost, Xavier Tabs (ver.1)

Artists:  A B C D E F G H I J K L M N O P Q R S T U V W X Y Z # 

Xavier Tabs (ver.1)

Paradise Lost Tabs
Rating:
0/5 (0 votes)
Hard to play? Try these video lessons and learn fast.
                GET IT RIGHT!!!!!!!!!!!!!!!!!!!! IT AIN'T HARD!!!!!!!!!!!!!!

CHORUS:

E----------------------------------
B----------------------------------
G----------------------------------
D-2-2-2-5-5-5-4-4-4-2-2-0----------
A-2-2-2-5-5-5-4-4-4-2-2-0----------
E-0-0-0-3-3-3-2-3-2-0-0-0----------

LEAD GUITAR PLAYS:

E---------------------------------------------------
B-----------------------------------------------7----
G-9-9-9-12-12-12-11-12-11-9-9-7---9-9h-11-7-7-5---5-2
D----------------------------------------------------
A----------------------------------------------------
E---------------------------------------------------
            

comments powered by Disqus
↑ Back to top | Paradise Lost Tabs for Xavier. Lyrics for acoustic guitar and electric guitar. Tablatures and chords are parodies/interpretations of the original songs. You may use it for private study, scholarship, research or language learning purposes only