» » »

Walk Away Bass tabs (ver.1)

Artists:  A B C D E F G H I J K L M N O P Q R S T U V W X Y Z # 

Walk Away Bass tabs (ver.1)

Paradise Lost
Rating:
0/5 (0 votes)

Hard to play? Try these video lessons and learn fast.
                drop d

G||--------------------|-------------------|-------------------|
D||*-------------------|-------------------|-------------------|
A||*--0----------------|--3----------------|--5----------------|
D||--------------------|-------------------|-------------------|


                                                                             
--------------------||---------------------------|--------------------------|
-------------------*||*--------------------------|--------------------------|
--8----------------*||*--0--0--0--0--0--0--0--0--|--3--3--3--3--3--3--3--3--|
--------------------||---------------------------|--------------------------|


                                                        
--------------------------|---------------------------||
--------------------------|--------------------------*||
--5--5--5--5--5--5--5--5--|--8--8--8--8--8--7--5--3--*||
--------------------------|---------------------------||


                                                       
---------------------------|--------------------------|
*--------------------------|--------------------------|
*--0--0--0--0--0--0--0--0--|--3--3--3--3--3--3--3--3--|
---------------------------|--------------------------|


                                                        
--------------------------|---------------------------||
--------------------------|--------------------------*||
--5--5--5--5--5--5--5--5--|--8--8--8--8--8--7--5--3--*||
--------------------------|---------------------------||


                                                       
---------------------------|--------------------------|
*--------------------------|--------------------------|
*--0--0--0--0--0--0--0--0--|--3--3--3--3--3--3--3--3--|
---------------------------|--------------------------|


                                                        
--------------------------|---------------------------||
--------------------------|--------------------------*||
--5--5--5--5--5--5--5--5--|--8--8--8--8--8--7--5--3--*||
--------------------------|---------------------------||


                                                       
---------------------------|--------------------------|
*--------------------------|--------------------------|
*--0--0--0--0--0--0--0--0--|--3--3--3--3--3--3--3--3--|
---------------------------|--------------------------|


                                                        
--------------------------|---------------------------||
--------------------------|--------------------------*||
--5--5--5--5--5--5--5--5--|--8--8--8--8--8--7--5--3--*||
--------------------------|---------------------------||


                                                       
---------------------------|--------------------------|
*--------------------------|--------------------------|
*--0--0--0--0--0--0--0--0--|--3--3--3--3--3--3--3--3--|
---------------------------|--------------------------|


                                                                            
--------------------------|---------------------------||-------------------|
--------------------------|--------------------------*||-------------------|
--5--5--5--5--5--5--5--5--|--8--8--8--8--8--7--5--3--*||--0----------------|
--------------------------|---------------------------||-------------------|


                                                                                
-------------------|-------------------|-------------------|-------------------|
-------------------|-------------------|-------------------|-------------------|
--3----------------|--5----------------|--8----------------|--0----------------|
-------------------|-------------------|-------------------|-------------------|


                                                            
-------------------|-------------------|-------------------|
-------------------|-------------------|-------------------|
--3----------------|--5----------------|--8----------------|
-------------------|-------------------|-------------------|


                                                      
--------------------------|--------------------------|
--------------------------|--------------------------|
--0--0--0--0--0--0--0--0--|--3--3--3--3--3--3--3--3--|
--------------------------|--------------------------|


                                                      
--------------------------|--------------------------|
--------------------------|--------------------------|
--5--5--5--5--5--5--5--5--|--8--8--8--8--8--7--5--3--|
--------------------------|--------------------------|


                                                      
--------------------------|--------------------------|
--------------------------|--------------------------|
--0--0--0--0--0--0--0--0--|--3--3--3--3--3--3--3--3--|
--------------------------|--------------------------|


                                                      
--------------------------|--------------------------|
--------------------------|--------------------------|
--5--5--5--5--5--5--5--5--|--8--8--8--8--8--7--5--3--|
--------------------------|--------------------------|


                                                        
|---------------------------|--------------------------|
|*--------------------------|--------------------------|
|*--0--0--0--0--0--0--0--0--|--3--3--3--3--3--3--3--3--|
|---------------------------|--------------------------|


                                                                             
--------------------------|---------------------------||--------------------|
--------------------------|--------------------------*||*-------------------|
--5--5--5--5--5--5--5--5--|--8--8--8--8--8--7--5--3--*||*--0----------------|
--------------------------|---------------------------||--------------------|


                                                              
-------------------|-------------------|--------------------||
-------------------|-------------------|-------------------*||
--3----------------|--5----------------|--8----------------*||
-------------------|-------------------|--------------------||


                                                       
---------------------------|--------------------------|
*--------------------------|--------------------------|
*--0--0--0--0--0--0--0--0--|--3--3--3--3--3--3--3--3--|
---------------------------|--------------------------|


                                                        
--------------------------|---------------------------||
--------------------------|--------------------------*||
--5--5--5--5--5--5--5--5--|--8--8--8--8--8--7--5--3--*||
--------------------------|---------------------------||


                                                       
---------------------------|--------------------------|
*--------------------------|--------------------------|
*--0--0--0--0--0--0--0--0--|--3--3--3--3--3--3--3--3--|
---------------------------|--------------------------|


                                                        
--------------------------|---------------------------||
--------------------------|--------------------------*||
--5--5--5--5--5--5--5--5--|--8--8--8--8--8--7--5--3--*||
--------------------------|---------------------------||


                                                       
---------------------------|--------------------------|
*--------------------------|--------------------------|
*--0--0--0--0--0--0--0--0--|--3--3--3--3--3--3--3--3--|
---------------------------|--------------------------|


                                                        
--------------------------|---------------------------||
--------------------------|--------------------------*||
--5--5--5--5--5--5--5--5--|--8--8--8--8--8--7--5--3--*||
--------------------------|---------------------------||
            
Hard to play? Try these video lessons and learn fast. | Correct




comments powered by Disqus
↑ Back to top | Tablatures and chords are parodies/interpretations of the original songs. You may use it for private study, scholarship, research or language learning purposes only