» » »

Enemy Tabs (ver.1)

Artists:  A B C D E F G H I J K L M N O P Q R S T U V W X Y Z # 

Enemy Tabs (ver.1)

Paradise Lost
Rating:
4/5 (5 votes)
Tabs too difficult? Try these video lessons and learn fast.
                --------------------------------------------------------------
--------------------------------------------------------------

Gtr tuned to D, with a dropped C

Main Riff

D-----------------------------|
A-----------------------------|
F-----------------------------|
C-----------------------------|
G-----------------/3----------|
C--0---/3---2--0------2---0---|


Rhythm Gtr
  xxxxxxxxxxxxxxxxx
D--------------------|
A--------------------|
F--------------------|
C-7777777777777777---|
G-5555555555555555---|
C--------------------|


Main Verse A

D-----------------------------------------------------------------|
A-----------------------------------------------------------------|
F-----------------------------------------------------------------|
C---------------------------------------------------------333222--|
G--0--0000--0--0000--3-0-0000--0-0000--5--0-0000--0-0000--111000--|
C--0--0000--0--0000--3-0-0000--0-0000--5--0-0000--0-0000----------|


Bridge/Chorus Rhythm

D-------------------------------------------------------|
A-------------------------------------------------------|
F-------------------------------------------------------|
C--7-777-7-777--3-333-3-333--2-222-2-222--5-555---------|
G--5-555-5-555--1-111-1-111--0-000-0-000--3-333--2-222--|
C------------------------------------------------2-222--|

Bridge/Chorus Lead

D-------------------------------------------------------|
A-------------------------------------------------------|
F-------------------------------------------------------|
C----------------7-----------5--------5---7-5----5------|
G-/5---5---7--8-------------------7-8---------8----8-7--|
C-------------------------------------------------------|

Fill 1

D-----------------------------------------------------|
A-----------------------------------------------------|
F-----------------------------------------------------|
C---7--7-7-7-----7--7-7-7-----7--7-7-7-----7--7-7-7---|
G-5-5--5-5-5---5-5--5-5-5---5-5--5-5-5---5-5--5-5-5---|
C-5------------5------------5------------5------------|

Main Verse B
                                                                              (Bracket 
Played by Greg)
D------------------------------------------------------------------|
A------------------------------------------------------------------|
F--------------------------------------------------------(9-9-99-)-|
C---------------------------------------------------------333222---|
G--0--0000--0--0000--3-0-0000--0-0000--5--0-0000--0-0000--111000---|
C--0--0000--0--0000--3-0-0000--0-0000--5--0-0000--0-0000-----------|


Pre Chorus Bridge
                 xxxx
D---------------------------|
A---------------------------|
F---------------------------|
C----------------------7----|
G--000000-0------3332----5--|
C--000000-0------3332-------|


Middle Riff
  -x xxxx x xxxx x xxxx x xxxx x xxxx x xxx      xxxx      xxxx
D----------------------------------------------------------------|
A----------------------------------------------------------------|
F----------------------------------------------------------------|
C---------------------------------------------h-----------h------|
G--------------------------------------------3-5-------3-5-------|
C--0-0000-0-0000-0-0000-0-0000-0-0000-0-000-------0000------0000-|


Solo Rhythm

D-------------------------------------|
A-------------------------------------|
F-------------------------------------|
C-----------------------5-------------|
G--0----3----2----0-----3---2----0----|
C--0----3----2----0---------2----0----|


Solo

D--------------------------------------------------|
A----18-15-17------15------------------------------|
F---------------------14-17------14----12----------|
C-0--------------0-------------0----12------15-14--|
G--------------------------------------------------|
C--------------------------------------------------|

D-------------------------------------------------|
A-------------------------------------------------|
F----10-7-9--------7----5---------2---------------|
C-0--------------0---7----------0----0-5----3-2---|
G-------------------------------------------------|
C-------------------------------------------------|

Song Layout

Main Riff x 2
Main Riff x 2 (with Rhythm Guitar)
Main Verse A x2
Bridge/Chorus Rhythm x2 (with Bridge/Chorus Lead)
Fill 1 x1
Main Verse B x2
Pre Chorus Bridge x2
Bridge/Chorus Rhythm x2
Bridge/Chorus Rhythm x2 (with Bridge/Chorus Lead)
Fill 1 x1
Main Riff x 2 (with Rhythm Guitar)
Middle Riff x2
Solo Rhythm x2 (With Solo x1)
Pre Chorus Bridge x2
Bridge/Chorus Rhythm x2
Bridge/Chorus Rhythm x2 (with Bridge/Chorus Lead)


h - hammer on
p - pull off
b - bend string up
r - release bend
/ - slide up
\ - slide down
v - vibrato (sometimes written as ~)
t - right hand tap
x - play 'note' with heavy damping
            
Tabs too difficult? Try these video lessons and learn fast.


comments powered by Disqus
↑ Back to top | Tablatures and chords are parodies/interpretations of the original songs. You may use it for private study, scholarship, research or language learning purposes only