» » »

Soul Courageous Bass tabs (ver.1)

Artists:  A B C D E F G H I J K L M N O P Q R S T U V W X Y Z # 

Soul Courageous Bass tabs (ver.1)

Paradise Lost
Rating:
0/5 (0 votes)

Hard to play? Try these video lessons and learn fast.
                G||-------|-------||---------------------------|--------------------------|
D||*------|------*||*--------------------------|--------------------------|
A||*------|------*||*--------------------------|--------------------------|
E||-------|-------||---2--2--2--2--2--2--2--2--|--0--0--0--0--0--0--0--0--|


                                                        
--------------------------|---------------------------||
--------------------------|--------------------------*||
--------------------------|--------------------------*||
--7--7--7--7--7--7--7--7--|--7--7--7--7--7--7--7--7---||


                                                       
---------------------------|--------------------------|
*--------------------------|--------------------------|
*--------------------------|--------------------------|
---2--2--2--2--2--2--2--2--|--0--0--0--0--0--0--0--0--|


                                                        
--------------------------|---------------------------||
--------------------------|--------------------------*||
--------------------------|--------------------------*||
--7--7--7--7--7--7--7--7--|--7--7--7--7--7--7--7--7---||


                                                       
---------------------------|--------------------------|
*--------------------------|--------------------------|
*--------------------------|--------------------------|
---2--2--2--2--2--2--2--2--|--0--0--0--0--0--0--0--0--|


                                                        
--------------------------|---------------------------||
--------------------------|--------------------------*||
--------------------------|--------------------------*||
--7--7--7--7--7--7--7--7--|--7--7--7--7--7--7--7--7---||


                                                      
--------------------------|--------------------------|
--------------------------|--------------------------|
--------------------------|--5--5--5--5--5--5--5--5--|
--0--0--0--0--0--0--0--0--|--------------------------|


                                                      
--------------------------|--------------------------|
--------------------------|--------------------------|
--2--2--2--2--2--2--2--2--|--2--2--2--2--2--2--2--2--|
--------------------------|--------------------------|


                                                      
--------------------------|--------------------------|
--------------------------|--------------------------|
--------------------------|--5--5--5--5--5--5--5--5--|
--0--0--0--0--0--0--0--0--|--------------------------|


                                                      
--------------------------|--------------------------|
--------------------------|--------------------------|
--2--2--2--2--2--2--2--2--|--2--2--2--2--2--2--2--2--|
--------------------------|--------------------------|


                                                        
|---------------------------|--------------------------|
|*--------------------------|--------------------------|
|*--------------------------|--------------------------|
|---2--2--2--2--2--2--2--2--|--0--0--0--0--0--0--0--0--|


                                                        
--------------------------|---------------------------||
--------------------------|--------------------------*||
--------------------------|--------------------------*||
--7--7--7--7--7--7--7--7--|--7--7--7--7--7--7--7--7---||


                                                       
---------------------------|--------------------------|
*--------------------------|--------------------------|
*--------------------------|--------------------------|
---2--2--2--2--2--2--2--2--|--0--0--0--0--0--0--0--0--|


                                                        
--------------------------|---------------------------||
--------------------------|--------------------------*||
--------------------------|--------------------------*||
--7--7--7--7--7--7--7--7--|--7--7--7--7--7--7--7--7---||


                                                       
---------------------------|--------------------------|
*--------------------------|--------------------------|
*--------------------------|--------------------------|
---2--2--2--2--2--2--2--2--|--0--0--0--0--0--0--0--0--|


                                                        
--------------------------|---------------------------||
--------------------------|--------------------------*||
--------------------------|--------------------------*||
--7--7--7--7--7--7--7--7--|--7--7--7--7--7--7--7--7---||


                                                      
--------------------------|--------------------------|
--------------------------|--------------------------|
--------------------------|--5--5--5--5--5--5--5--5--|
--0--0--0--0--0--0--0--0--|--------------------------|


                                                      
--------------------------|--------------------------|
--------------------------|--------------------------|
--2--2--2--2--2--2--2--2--|--2--2--2--2--2--2--2--2--|
--------------------------|--------------------------|


                                                      
--------------------------|--------------------------|
--------------------------|--------------------------|
--------------------------|--5--5--5--5--5--5--5--5--|
--0--0--0--0--0--0--0--0--|--------------------------|


                                                      
--------------------------|--------------------------|
--------------------------|--------------------------|
--2--2--2--2--2--2--2--2--|--2--2--2--2--2--2--2--2--|
--------------------------|--------------------------|


                                                      
--------------------------|--------------------------|
--------------------------|--------------------------|
--------------------------|--------------------------|
--2--2--2--2--2--2--2--2--|--0--0--0--0--0--0--0--0--|


                                                
--------------------------|-------------------||
--------------------------|-------------------||
--------------------------|-------------------||
--7--7--7--7--7--7--7--7--|--7----------------||
            
Hard to play? Try these video lessons and learn fast. | Correct




comments powered by Disqus
↑ Back to top | Tablatures and chords are parodies/interpretations of the original songs. You may use it for private study, scholarship, research or language learning purposes only