>
 >
Shades Of God

Shades Of God Bass Tabs

Paradise Lost - Shades Of God chords, tabs, tablatures, lyrics

Guitar lessons | Add/correct | Request | Top 50 tabs Artists:  A B C D E F G H I J K L M N O P Q R S T U V W X Y Z 0-9

Shades Of God Bass Tabs – Paradise Lost

CD, Sheet music, Poster

Do you like Shades Of God? Share with your friends now
Bass TabsTabs
G||------|------|------||-------|------|------|------|------|
D||------|------|------||*------|------|------|------|------|
A||------|------|------||*------|------|------|------|------|
E||------|------|------||-------|------|------|------|------|


                                                                     
----------------------|----------------------|----------------------|
----------------------|----------------------|----------------------|
----------------------|----------------------|----------------------|
--5----7----8----7----|--3----5----6----5----|--1----3----4----3----|


                                                                     
----------------------|----------------------|----------------------|
----------------------|----------------------|----------------------|
----------------------|----------------------|----------------------|
--0----2----3----2----|--5----7----8----7----|--3----5----6----5----|


                                                                              
----------------------|------|------|-------------------|--------------------|
----------------------|------|------|-------------------|--------------------|
----------------------|------|------|-------------------|--------------------|
--1----3----4----3----|------|------|--0----------------|--------------0--0--|


                                                             
-------------------|--------------------|-------------------|
-------------------|--------------------|-------------------|
-------------------|--------------------|-------------------|
--5----------------|--------------5--5--|--3----------------|


                                                               
--------------------|--------------------|--------------------|
--------------------|--------------------|--------------------|
--------------------|--------------------|--------------------|
--------------3--5--|--7--------5--------|--3--------0--------|


                                                             
-------------------|--------------------|-------------------|
-------------------|--------------------|-------------------|
-------------------|--------------------|-------------------|
--0----------------|--------------0--0--|--5----------------|


                                                              
--------------------|-------------------|--------------------|
--------------------|-------------------|--------------------|
--------------------|-------------------|--------------------|
--------------5--5--|--3----------------|--------------3--5--|


                                                               
--------------------|--------------------|--------------------|
--------------------|--------------------|--------------------|
--------------------|--------------------|--10----------------|
--7--------5--------|--3--------0--------|--------------------|


                                                            
-------------------|-------------------|-------------------|
-------------------|-------------------|-------------------|
--9----------------|--2----------------|--7----------------|
-------------------|-------------------|-------------------|


                                                             
--------------------|-------------------|-------------------|
--------------------|-------------------|-------------------|
--10----------------|--9----------------|--2----------------|
--------------------|-------------------|-------------------|


                                                              
-------------------|--------------------|--------------------|
-------------------|--------------------|--------------------|
--7----------------|--12----------------|--11----------------|
-------------------|--------------------|--------------------|


                                                             
-------------------|-------------------|--------------------|
-------------------|-------------------|--------------------|
--4----------------|--9----------------|--12----------------|
-------------------|-------------------|--------------------|


                                                             
--------------------|-------------------|-------------------|
--------------------|-------------------|-------------------|
--11----------------|--4----------------|--9----------------|
--------------------|-------------------|-------------------|


                                                                                
-------------------|-------------------|-------------------|-------------------|
-------------------|-------------------|-------------------|-------------------|
--3----------------|--1----------------|-------------------|-------------------|
-------------------|-------------------|--5----------------|--3----------------|


                                                                                
-------------------|-------------------|-------------------|-------------------|
-------------------|-------------------|-------------------|-------------------|
--3----------------|--1----------------|-------------------|-------------------|
-------------------|-------------------|--5----------------|--3----------------|


                                                              
-------------------|------------------|----------------------|
-------------------|------------------|----------------------|
-------------------|------------------|----------------------|
--1----------------|------------------|--3----3----3----3----|


                                                                  
--------------------------|-------------------|------------------|
--------------------------|-------------------|------------------|
--------------------------|-------------------|------------------|
--3--3--3--3--3--3--3--3--|--0----------------|------------------|


                                                               
---------------------|------------------|---------------------|
---------------------|------------------|---------------------|
---------------------|------------------|---------------------|
--0--0--5------------|------------------|------5--5--3--------|


                                                                
---------------------|--------------------|--------------------|
---------------------|--------------------|--------------------|
---------------------|--------------------|--------------------|
------3--5--7--------|--5--------3--------|--0--------0--------|


                                                               
------------------|---------------------|---------------------|
------------------|---------------------|---------------------|
------------------|---------------------|---------------------|
------------------|--0--0--5------------|----------5--5--3----|


                                                               
------------------|----------------------|--------------------|
------------------|----------------------|--------------------|
------------------|----------------------|--------------------|
------------------|--3--5--7--------5----|------3--------0----|


                                                             
--------------------|-------------------|-------------------|
--------------------|-------------------|-------------------|
------10------------|------9------------|------2------------|
--------------------|-------------------|-------------------|


                                                             
-------------------|--------------------|-------------------|
-------------------|--------------------|-------------------|
------7------------|------10------------|------9------------|
-------------------|--------------------|-------------------|


                                                             
-------------------|-------------------|--------------------|
-------------------|-------------------|--------------------|
------2------------|------7------------|------12------------|
-------------------|-------------------|--------------------|


                                                             
--------------------|-------------------|-------------------|
--------------------|-------------------|-------------------|
------11------------|------4------------|------9------------|
--------------------|-------------------|-------------------|


                                                              
--------------------|--------------------|-------------------|
--------------------|--------------------|-------------------|
------12------------|------11------------|------4------------|
--------------------|--------------------|-------------------|


                                                                                
-------------------|-------------------|-------------------|-------------------|
-------------------|-------------------|-------------------|-------------------|
------9------------|------3------------|------1------------|-------------------|
-------------------|-------------------|-------------------|------5------------|


                                                                                
-------------------|-------------------|-------------------|-------------------|
-------------------|-------------------|-------------------|-------------------|
-------------------|------3------------|------1------------|-------------------|
------3------------|-------------------|-------------------|------5------------|


                                                           
-------------------|-------------------|------------------|
-------------------|-------------------|------------------|
-------------------|-------------------|------------------|
------3------------|------1------------|------------------|


                                                                       
---------------------|-------------------------|----------------------|
---------------------|-------------------------|----------------------|
---------------------|-------------------------|----------------------|
------3----3----3----|--3----3--3--3--3--3--3--|--3----5----7----8----|


                                                                     
----------------------|----------------------|----------------------|
----------------------|----------------------|----------------------|
----------------------|----------------------|----------------------|
--7----3----5----6----|--5----1----3----4----|--3----0----2----3----|


                                                                     
----------------------|----------------------|----------------------|
----------------------|----------------------|----------------------|
----------------------|----------------------|----------------------|
--2----5----7----8----|--7----3----5----6----|--5----1----3----4----|


                                                                   
----------------------|----------------------|--------------------|
----------------------|----------------------|--------------------|
----------------------|----------------------|-----------5--------|
--3----0----2----3----|--2----0----2----3----|--2-----------------|


                                                                                
-------------------|-------------------|-------------------|-------------------|
-------------------|-------------------|-------------------|-------------------|
----------3--------|----------1--------|----------0--------|----------5--------|
-------------------|-------------------|-------------------|-------------------|


                                                                                
-------------------|-------------------|-------------------|-------------------|
-------------------|-------------------|-------------------|-------------------|
----------3--------|----------1--------|----------0--------|----------5--------|
-------------------|-------------------|-------------------|-------------------|


                                                                                
-------------------|-------------------|-------------------|-------------------|
-------------------|-------------------|-------------------|-------------------|
----------3--------|----------1--------|----------0--------|----------5--------|
-------------------|-------------------|-------------------|-------------------|


                                                                                
-------------------|-------------------|-------------------|-------------------|
-------------------|-------------------|-------------------|-------------------|
----------3--------|----------1--------|----------0--------|----------3--------|
-------------------|-------------------|-------------------|-------------------|


                                                                                
------------------|-------------------|------------------|---------------------|
------------------|-------------------|------------------|---------------------|
------------------|-------------------|------------------|---------------------|
------------------|--------0----------|------------------|----0--0--5----------|


                                                            
------------------|---------------------|------------------|
------------------|---------------------|------------------|
------------------|---------------------|------------------|
------------------|----5--5--3----------|------------------|


                                                                              
----------------------|--------------------|-------------------|------|------|
----------------------|--------------------|-------------------|------|------|
----------------------|--------------------|-------------------|------|------|
----3--5--7--------5--|--------3--------0--|--------0----------|------|------|


                                                             
-------------------|--------------------|-------------------|
-------------------|--------------------|-------------------|
-------------------|--------------------|-------------------|
--0----------------|--------------0--0--|--5----------------|


                                                              
--------------------|-------------------|--------------------|
--------------------|-------------------|--------------------|
--------------------|-------------------|--------------------|
--------------5--5--|--3----------------|--------------3--5--|


                                           
--------------------|--------------------||
--------------------|--------------------||
--------------------|--------------------||
--7--------5--------|--3--------0--------||





Comments


Popular Paradise Lost tabs & chords
Mouth 2 Bass Tabs
Walk Away Bass Tabs
Pity The Sadness Chords
Elusive Cure Tabs
Fader Tabs
Gothic 1 Tabs
Mouth 2 Tabs
Painless Tabs
Solitary One Tabs
The Rise Of Denial Tabs


Song lyrics



↑ Back to top | Tablatures and chords are parodies/interpretations of the original songs. You may use it for private study, scholarship, research or language learning purposes only
© 2014 AZChords.com Contact us | Privacy policy | DMCA | Add/correct tabs | Request tabs | Top 50 tabs