» » »

Say Just Words Tabs (ver.1)

Artists:  A B C D E F G H I J K L M N O P Q R S T U V W X Y Z # 

Say Just Words Tabs (ver.1)

Paradise Lost
Rating:
0/5 (0 votes)

Hard to play? Try these video lessons and learn fast.
                Written by Nick HOLMES and Gregor MACKINTOSH.
Okay. Here is my version of "Say Just Words" from Paradise Lost last 
album "One second". One of the best albums ever made in my opinion.
Notes with a -x- are intended to be played with right hand palm muting.
It's a good song,listen to it before to play.
Normal tuning.


Rhy. Fig 1 (Keyboard arr. for guitar)
e||---8----10-11--|---8----10-11----||
B||-8---8---------|-8---8--------9--||
G||---------------|-----------------||
D||---------------|-----------------||
A||---------------|-----------------||
E||---------------|-----------------||


Rhy. Fig 2 (Keyboard arr. for guitar)
e||-------------|---------------||
B||---1----3-4--|---1----3-4----||
G||-0---0-------|-0---0------1--||
D||-------------|---------------||
A||-------------|---------------||
E||-------------|---------------||


Rhy. Fig 3
e||----------||
B||----------||
G||-5------5-||
D||-5------5-||
A||-3------3-||
E||----------||


Rhy. Fig 4
e||--------------------------------------------------------------------||
B||--------------------------------------------------------------------||
G||-5-5-5-5-5-5-5-5--8-8-8-8-8-8-8-8--3-3-3-3-3-3-3-3------------------||
D||-5-5-5-5-5-5-5-5--8-8-8-8-8-8-8-8--3-3-3-3-3-3-3-3--6-6-6-6-6-6-6-6-||
A||-3-3-3-3-3-3-3-3--6-6-6-6-6-6-6-6--1-1-1-1-1-1-1-1--6-6-6-6-6-6-6-6-||
E||----------------------------------------------------4-4-4-4-4-4-4-4-||


Rhy. Fig 5
e||--------------------------------------------------------------------||
B||--------------------------------------------------------------------||
G||-5-5-5-5-5-5-5-5--8-8-8-8-8-8-8-8--3-3-3-3-3-3-3-3------------------||
D||-5-5-5-5-5-5-5-5--8-8-8-8-8-8-8-8--3-3-3-3-3-3-3-3--6-3-3-3-3-3-3-6-||
A||-3-3-3-3-3-3-3-3--6-6-6-6-6-6-6-6--1-1-1-1-1-1-1-1--6-3-3-3-3-3-3-6-||
E||----------------------------------------------------4-1-1-1-1-1-1-4-||


Rhy. Fig 6
e||-------------------------------------------------||
B||-------------------------------------------------||
G||-5-x-x-x-x-5-5-x-x-x-x-5-5-x-x-x-x-5---------3-3-||
D||-5-x-x-x-x-5-5-x-x-x-x-5-5-x-x-x-x-5-6-6-3-3-3-3-||
A||-3-x-x-x-x-3-3-x-x-x-x-3-3-x-x-x-x-3-6-6-3-3-1-1-||
E||-------------------------------------4-4-1-1-----||


Rhy. Fig 7		Rhy. Fig 8			Rhy. Fig 9	
e||---||		e||---------||			e||---||
B||---||		B||---------||			B||---||
G||---||		G||-5-4-5-7-||			G||-5-||
D||-5-||		D||-5-4-5-7-||			D||-5-||
A||-5-||		A||-3-2-3-5-||			A||-3-||
E||-3-||		E||---------||			E||---||


Song Structure

Intro:
	Rhy. Fig 1 x2
	Rhy. Fig 2 & Rhy. Fig 3 x 2
	Rhy. Fig 2 & Rhy. Fig 4 x 1
	Rhy. Fig 2 & Rhy. Fig 5 x 1

Verse:
 	Rhy. Fig 6 x 4
	Rhy. Fig 7 lotsa times

Chorus:
	Rhy. Fig 2 & Rhy. Fig 4 x 3
	Rhy. Fig 2 & Rhy. Fig 5 x 1

Verse:
 	Rhy. Fig 6 x 4
	Rhy. Fig 7 lotsa times

Chorus:
	Rhy. Fig 2 & Rhy. Fig 4 x 3
	Rhy. Fig 2 & Rhy. Fig 5 x 1

Break

Interlude:
	Rhy. Fig 2 & Rhy. Fig 9 x 2
	Rhy. Fig 8 x 1

Chorus:
	Rhy. Fig 2 & Rhy. Fig 4 x3
	Rhy. Fig 2 & Rhy. Fig 5 x1

[verse]
You get high,with your destructive instinct,
You get high,with your corrosive instinct.
Where can I go,to escape your foul mind tricks,
You're trying it more,but you wil never break me

Cause you presume,the winner is you but that's not true,so say just words to
 me

[chorus]
Unreal what your hate's providing,say just words to me
Your talk is always contradiction say just words to me
You won't feel the warmth of friends around say just words to me
Is it true that there is worth inside,so say just words to me

[verse]
Your designs,all the worse from power craving,
Your desires only where there's fire burning,
I'll show you the way a pleasure that's for the taking,
You're tring it more but you won't get satisfaction,

Cause you presume,the winner is you but that's not true,so say just words to
 me

[chorus]

Send any questions, comments, corrections, whatever. 
Just send me something!

And correct version by Phil
            
Hard to play? Try these video lessons and learn fast. | Correct




comments powered by Disqus
↑ Back to top | Tablatures and chords are parodies/interpretations of the original songs. You may use it for private study, scholarship, research or language learning purposes only