» » »

Paradise Lost, Pray Nightfall Bass tabs (ver.1)

Artists:  A B C D E F G H I J K L M N O P Q R S T U V W X Y Z # 

Pray Nightfall Bass tabs (ver.1)

Paradise Lost Tabs
 Rating:
4/5 (4 votes)
Pray Nightfall lessons Tabs too difficult? Try these video lessons and learn fast
                standard 5 string tuneing

G||-----------------------------|-----------------------------|
D||-----------------------------|-----------------------------|
A||--4--4--4--4-4-4-4-4--4--4-4-|--4--4--4--4-4-4-4-4--4--4-4-|
E||-----------------------------|-----------------------------|
B||-----------------------------|-----------------------------|


                                                            
-----------------------------|-----------------------------|
-----------------------------|-----------------------------|
-----------------------------|-----------------------------|
--4--4--4--4-4-4-4-4--4--4-4-|--0--0--0--0-0-0-0-0--0--0-0-|
-----------------------------|-----------------------------|


                                                            
-----------------------------|-----------------------------|
-----------------------------|-----------------------------|
--4--4--4--4-4-4-4-4--4--4-4-|--4--4--4--4-4-4-4-4--4--4-4-|
-----------------------------|-----------------------------|
-----------------------------|-----------------------------|


                                                                                
-----------------------------|-----------------------------|-------------------|
-----------------------------|-----------------------------|-------------------|
-----------------------------|-----------------------------|-------------------|
--4--4--4--4-4-4-4-4--4--4-4-|--0--0--0--0-0-0-0-0--0--0-0-|-------------------|
-----------------------------|-----------------------------|--2----------------|


                                                               
------------------|---|---|---|---|---|---|-------------------|
------------------|---|---|---|---|---|---|-------------------|
------------------|---|---|---|---|---|---|-------------------|
------------------|---|---|---|---|---|---|-------------------|
------------------|---|---|---|---|---|---|--2----------------|


                                                                               
------------------|-------------------|-------------------|-------------------|
------------------|-------------------|-------------------|-------------------|
------------------|-------------------|-------------------|-------------------|
------------------|--4----------------|--0----------------|-------------------|
------------------|-------------------|-------------------|--2----------------|


                                                           
------------------|-------------------|-------------------|
------------------|-------------------|-------------------|
------------------|-------------------|-------------------|
------------------|--4----------------|--0----------------|
------------------|-------------------|-------------------|


                                                            
-----------------------------|-----------------------------|
-----------------------------|-----------------------------|
-----------------------------|-----------------------------|
-----------------------------|-----------------------------|
--2--2--2--2-2-2-2-2--2--2-2-|--2--2--2--2-2-2-2-2--2--2-2-|


                                                            
-----------------------------|-----------------------------|
-----------------------------|-----------------------------|
-----------------------------|-----------------------------|
--4--4--4--4-4-4-4-4--4--4-4-|--0--0--0--0-0-0-0-0--0--0-0-|
-----------------------------|-----------------------------|


                                                            
-----------------------------|-----------------------------|
-----------------------------|-----------------------------|
-----------------------------|-----------------------------|
-----------------------------|-----------------------------|
--2--2--2--2-2-2-2-2--2--2-2-|--2--2--2--2-2-2-2-2--2--2-2-|


                                                            
-----------------------------|-----------------------------|
-----------------------------|-----------------------------|
-----------------------------|-----------------------------|
--4--4--4--4-4-4-4-4--4--4-4-|--0--0--0--0-0-0-0-0--0--0-0-|
-----------------------------|-----------------------------|


                                                            
-----------------------------|-----------------------------|
-----------------------------|-----------------------------|
-----------------------------|-----------------------------|
-----------------------------|-----------------------------|
--2--2--2--2-2-2-2-2--2--2-2-|--2--2--2--2-2-2-2-2--2--2-2-|


                                                            
-----------------------------|-----------------------------|
-----------------------------|-----------------------------|
-----------------------------|-----------------------------|
--4--4--4--4-4-4-4-4--4--4-4-|--0--0--0--0-0-0-0-0--0--0-0-|
-----------------------------|-----------------------------|


                                                            
-----------------------------|-----------------------------|
-----------------------------|-----------------------------|
-----------------------------|-----------------------------|
-----------------------------|-----------------------------|
--2--2--2--2-2-2-2-2--2--2-2-|--2--2--2--2-2-2-2-2--2--2-2-|


                                                                                
-----------------------------|-----------------------------|-------------------|
-----------------------------|-----------------------------|-------------------|
-----------------------------|-----------------------------|-------------------|
--4--4--4--4-4-4-4-4--4--4-4-|--0--0--0--0-0-0-0-0--0--0-0-|--0----------------|
-----------------------------|-----------------------------|-------------------|


                                                                            
------------------|------------------|------------------|------------------|
------------------|------------------|------------------|------------------|
------------------|------------------|------------------|------------------|
------------------|------------------|------------------|------------------|
------------------|------------------|------------------|------------------|


                                                                            
------------------|------------------|------------------|------------------|
------------------|------------------|------------------|------------------|
------------------|------------------|------------------|------------------|
------------------|------------------|------------------|------------------|
------------------|------------------|------------------|------------------|


                                                            
-----------------------------|-----------------------------|
-----------------------------|-----------------------------|
-----------------------------|-----------------------------|
-----------------------------|-----------------------------|
--2--2--2--2-2-2-2-2--2--2-2-|--2--2--2--2-2-2-2-2--2--2-2-|


                                                            
-----------------------------|-----------------------------|
-----------------------------|-----------------------------|
-----------------------------|-----------------------------|
--4--4--4--4-4-4-4-4--4--4-4-|--0--0--0--0-0-0-0-0--0--0-0-|
-----------------------------|-----------------------------|


                                                            
-----------------------------|-----------------------------|
-----------------------------|-----------------------------|
-----------------------------|-----------------------------|
-----------------------------|-----------------------------|
--2--2--2--2-2-2-2-2--2--2-2-|--2--2--2--2-2-2-2-2--2--2-2-|


                                                            
-----------------------------|-----------------------------|
-----------------------------|-----------------------------|
-----------------------------|-----------------------------|
--4--4--4--4-4-4-4-4--4--4-4-|--0--0--0--0-0-0-0-0--0--0-0-|
-----------------------------|-----------------------------|


                                                            
-----------------------------|-----------------------------|
-----------------------------|-----------------------------|
-----------------------------|-----------------------------|
-----------------------------|-----------------------------|
--2--2--2--2-2-2-2-2--2--2-2-|--2--2--2--2-2-2-2-2--2--2-2-|


                                                            
-----------------------------|-----------------------------|
-----------------------------|-----------------------------|
-----------------------------|-----------------------------|
--4--4--4--4-4-4-4-4--4--4-4-|--0--0--0--0-0-0-0-0--0--0-0-|
-----------------------------|-----------------------------|


                                                            
-----------------------------|-----------------------------|
-----------------------------|-----------------------------|
-----------------------------|-----------------------------|
-----------------------------|-----------------------------|
--2--2--2--2-2-2-2-2--2--2-2-|--2--2--2--2-2-2-2-2--2--2-2-|


                                                            
-----------------------------|-----------------------------|
-----------------------------|-----------------------------|
-----------------------------|-----------------------------|
--4--4--4--4-4-4-4-4--4--4-4-|--0--0--0--0-0-0-0-0--0--0-0-|
-----------------------------|-----------------------------|


                                                                                
-----------------------------|-----------------------------|-------------------|
-----------------------------|-----------------------------|-------------------|
-----------------------------|-----------------------------|-------------------|
--0--0--0--0-0-0-0-0--0--0-0-|-----------------------------|-------------------|
-----------------------------|--0--0--0--0-0-0-0-0--0--0-0-|--2----------------|


                                                                            
------------------|------------------|------------------|------------------|
------------------|------------------|------------------|------------------|
------------------|------------------|------------------|------------------|
------------------|------------------|------------------|------------------|
------------------|------------------|------------------|------------------|


                                                                            
------------------|------------------|------------------|------------------|
------------------|------------------|------------------|------------------|
------------------|------------------|------------------|------------------|
------------------|------------------|------------------|------------------|
------------------|------------------|------------------|------------------|


                                                                            
------------------|------------------|------------------|------------------|
------------------|------------------|------------------|------------------|
------------------|------------------|------------------|------------------|
------------------|------------------|------------------|------------------|
------------------|------------------|------------------|------------------|


                                                                               
------------------|-----------------------------|-----------------------------|
------------------|-----------------------------|-----------------------------|
------------------|-----------------------------|-----------------------------|
------------------|-----------------------------|-----------------------------|
------------------|--2--2--2--2-2-2-2-2--2--2-2-|--2--2--2--2-2-2-2-2--2--2-2-|


                                                            
-----------------------------|-----------------------------|
-----------------------------|-----------------------------|
-----------------------------|-----------------------------|
--4--4--4--4-4-4-4-4--4--4-4-|--0--0--0--0-0-0-0-0--0--0-0-|
-----------------------------|-----------------------------|


                                                            
-----------------------------|-----------------------------|
-----------------------------|-----------------------------|
-----------------------------|-----------------------------|
-----------------------------|-----------------------------|
--2--2--2--2-2-2-2-2--2--2-2-|--2--2--2--2-2-2-2-2--2--2-2-|


                                                            
-----------------------------|-----------------------------|
-----------------------------|-----------------------------|
-----------------------------|-----------------------------|
--4--4--4--4-4-4-4-4--4--4-4-|--0--0--0--0-0-0-0-0--0--0-0-|
-----------------------------|-----------------------------|


                                                            
-----------------------------|-----------------------------|
-----------------------------|-----------------------------|
-----------------------------|-----------------------------|
-----------------------------|-----------------------------|
--2--2--2--2-2-2-2-2--2--2-2-|--2--2--2--2-2-2-2-2--2--2-2-|


                                                            
-----------------------------|-----------------------------|
-----------------------------|-----------------------------|
-----------------------------|-----------------------------|
--4--4--4--4-4-4-4-4--4--4-4-|--0--0--0--0-0-0-0-0--0--0-0-|
-----------------------------|-----------------------------|


                                                            
-----------------------------|-----------------------------|
-----------------------------|-----------------------------|
-----------------------------|-----------------------------|
-----------------------------|-----------------------------|
--2--2--2--2-2-2-2-2--2--2-2-|--2--2--2--2-2-2-2-2--2--2-2-|


                                                            
-----------------------------|-----------------------------|
-----------------------------|-----------------------------|
-----------------------------|-----------------------------|
--4--4--4--4-4-4-4-4--4--4-4-|--0--0--0--0-0-0-0-0--0--0-0-|
-----------------------------|-----------------------------|


                                                                             
-----------------------------|-----------------------------|---|---|---|---||
-----------------------------|-----------------------------|---|---|---|---||
-----------------------------|-----------------------------|---|---|---|---||
--0--0--0--0-0-0-0-0--0--0-0-|-----------------------------|---|---|---|---||
-----------------------------|--0--0--0--0-0-0-0-0--0--0-0-|---|---|---|---||
            
Submit corrections

comments powered by Disqus
↑ Back to top | Paradise Lost Bass for Pray Nightfall. Lyrics for acoustic guitar and electric guitar. Tablatures and chords are parodies/interpretations of the original songs. You may use it for private study, scholarship, research or language learning purposes only