» » »

Paradise Lost, Once Solemn Tabs (ver.1)

Artists:  A B C D E F G H I J K L M N O P Q R S T U V W X Y Z # 

Once Solemn Tabs (ver.1)

Paradise Lost Tabs
 Rating:
4/5 (4 votes)
Once Solemn lessons Tabs too difficult? Try these video lessons and learn fast
1
                paradiselost - oncesolemn


INTRO
0:00 
|-----------------|-----------------|-----------------|-----------------|
|-----------------|-----------------|-----------------|-----------------|
|-----------------|-----------------|-----------------|-----------------|
|-9-9-9-9---------|-4-4-4-4-4-4-4-4-|-9-9-9-9---------|-5-5-5-5-5-5-5-5-|
|-7-7-7-7-5-5-5-5-|-2-2-2-2-2-2-2-2-|-7-7-7-7-5-5-5-5-|-3-3-3-3-3-3-3-3-|
|---------3-3-3-3-|-----------------|---------3-3-3-3-|-----------------|
                                        _____ __________________________
|-----------------|-----------------|-----------------|-----------------|
|-----------------|-----------------|-----------------|-----------------|
|-----------------|-----------------|-----------------|-----------------|
|-9-9-9-9---------|-4-4-4-4-4-4-4---|---2-------------|-----------------|
|-7-7-7-7-5-5-5-5-|-2-2-2-2-2-2-2-5-|---0-------------|-----------------|
|---------3-3-3-3-|---------------3-|-----------------|-----------------|
	
VERSE 1	
0:12 sec
Repeat x4                             _______________   ________________
|-----------------|-----------------|-----------------|-----------------|
|-----------------|-----------------|-----------------|-----------------|
|-----------------|-----------------|-----------------|-----------------|
|-2---------------|-----------------|-----------------|-----------------|
|-2---2-2-2-2-2-2-|-2-2-2-2-2-2-2-2-|-5-------------5/|-7-------------5-|
|-0---0-0-0-0-0-0-|-0-0-0-0-0-0-0-0-|-3-------------3/|-5-------------3-|
     pm . . . . .   . . . . . . . .   
                                      Once solemn, the things I'm leaving alone
				      Once solem, the looks that turn one to stone
                              And I'm learning the highs and the lows of the
panic inside
                              And I'm learning the highs and the lows of the
fake promises

BRIDGE
0:34 sec
Repeat x2
|---------------|-----------------|-----------------|-----------------|
|---------------|-----------------|-----------------|-----------------|
|---------------|-----------------|-----------------|-----------------|
|---------------|-------------5---|-4---4-4-4-------|-----------------|
|-7---7-7-7-7---|-2---2-2-2---3---|-2---2-2-2---5---|-4---4-4-4----5--|
|-5---5-5-5-5---|-0---0-0-0-------|-------------3---|-2---2-2-2----3--|


PRECHORUS
0:46
|-----------------|-----------------|-----------------|-----------------|
|-----------------|-----------------|-----------------|-----------------|
|-----------------|-----------------|-----------------|-----------------|
|-----------------|-----------------|-7-7-7-7-7-7-7-7-|-5-5-5-5-5-5-5-5-|
|-2-2-2-2-2-2-2-2-|-5-5-5-5-5-5-5-5-|-5-5-5-5-5-5-5-5-|-3-3-3-3-3-3-3-3-|
|-0-0-0-0-0-0-0-0-|-3-3-3-3-3-3-3-3-|-----------------|-----------------|
pm. . . . . . . .   . . . . . . . .   . . . . . . . .   . . . . . . . .

                                              Your powers electrify me
          Your prowess repels apathy          Your image can turn your soul
to stone


CHORUS 
0:58 
|-----------------|-----------------|-----------------|-----------------|
|-----------------|-----------------|-----------------|-----------------|
|-----------------|-----------------|-----------------|-----------------|
|-9-9-9-9---------|-4-4-4-4-4-4-4-4-|-9-9-9-9---------|-5-5-5-5-5-5-5-5-|
|-7-7-7-7-5-5-5-5-|-2-2-2-2-2-2-2-2-|-7-7-7-7-5-5-5-5-|-3-3-3-3-3-3-3-3-|
|---------3-3-3-3-|-----------------|---------3-3-3-3-|-----------------|
                            Can't find another way              Can't find
the words to say
                                        _____ __________________________
|-----------------|-----------------|-----------------|-----------------|
|-----------------|-----------------|-----------------|-----------------|
|-----------------|-----------------|-----------------|-----------------|
|-9-9-9-9---------|-4-4-4-4-4-4-4---|---2-------------|-----------------|
|-7-7-7-7-5-5-5-5-|-2-2-2-2-2-2-2-5-|---0-------------|-----------------|
|---------3-3-3-3-|---------------3-|-----------------|-----------------|


VERSE 2
1:09 sec
Repeat x4                             _______________   ________________
|-----------------|-----------------|-----------------|-----------------|
|-----------------|-----------------|-----------------|-----------------|
|-----------------|-----------------|-----------------|-----------------|
|-2---------------|-----------------|-----------------|-----------------|
|-2---2-2-2-2-2-2-|-2-2-2-2-2-2-2-2-|-5-------------5/|-7-------------5-|
|-0---0-0-0-0-0-0-|-0-0-0-0-0-0-0-0-|-3-------------3/|-5-------------3-|
     pm . . . . .   . . . . . . . .   
                                      Unchaining the thing that's holding me
down
                                      And it's frustrating, the pressure's
getting me down
                                      And it's trying to live with a bad
decision every day
                                      It's a fever that's eating away in
search of a fast release

BRIDGE
1:32 sec
Repeat x2
|---------------|-----------------|-----------------|-----------------|
|---------------|-----------------|-----------------|-----------------|
|---------------|-----------------|-----------------|-----------------|
|---------------|-------------5---|-4---4-4-4-------|-----------------|
|-7---7-7-7-7---|-2---2-2-2---3---|-2---2-2-2---5---|-4---4-4-4----5--|
|-5---5-5-5-5---|-0---0-0-0-------|-------------3---|-2---2-2-2----3--|


PRECHORUS
1:43
|-----------------|-----------------|-----------------|-----------------|
|-----------------|-----------------|-----------------|-----------------|
|-----------------|-----------------|-----------------|-----------------|
|-----------------|-----------------|-7-7-7-7-7-7-7-7-|-5-5-5-5-5-5-5-5-|
|-2-2-2-2-2-2-2-2-|-5-5-5-5-5-5-5-5-|-5-5-5-5-5-5-5-5-|-3-3-3-3-3-3-3-3-|
|-0-0-0-0-0-0-0-0-|-3-3-3-3-3-3-3-3-|-----------------|-----------------|
pm. . . . . . . .   . . . . . . . .   . . . . . . . .   . . . . . . . .

                                              Your powers electrify me
          Devour the one that's guilty        Your image can turn your soul
to stone

CHORUS
1:54
|-----------------|-----------------|-----------------|-----------------|
|-----------------|-----------------|-----------------|-----------------|
|-----------------|-----------------|-----------------|-----------------|
|-9-9-9-9---------|-4-4-4-4-4-4-4-4-|-9-9-9-9---------|-5-5-5-5-5-5-5-5-|
|-7-7-7-7-5-5-5-5-|-2-2-2-2-2-2-2-2-|-7-7-7-7-5-5-5-5-|-3-3-3-3-3-3-3-3-|
|---------3-3-3-3-|-----------------|---------3-3-3-3-|-----------------|
                            Can't find another way              Can't find
the words to say
                                        _____ __________________________
|-----------------|-----------------|-----------------|-----------------|
|-----------------|-----------------|-----------------|-----------------|
|-----------------|-----------------|-----------------|-----------------|
|-9-9-9-9---------|-4-4-4-4-4-4-4---|---2-------------|-----------------|
|-7-7-7-7-5-5-5-5-|-2-2-2-2-2-2-2-5-|---0-------------|-----------------|
|---------3-3-3-3-|---------------3-|-----------------|-----------------|
                                       *G1 holds this note, G2 continues

BRIDGE 2
2:03
Guitar 2
Repeat x2
|-----------------|-----------------|-----------------|-----------------|
|-----------------|-----------------|-----------------|-----------------|
|-----4-4-2-2-----|-----------------|-2-2-------------|-----------------|
|-2-2---------5-5-|-0-0-0-0-0-0-0-0-|-----2-2-0-0-----|-----------------|
|-----------------|-----------------|-------------3-3-|-3-3-3-3-3-3-3-3-|
|-----------------|-----------------|-----------------|-----------------|
pm. . . . . . . .   . . . . . . . .   . . . . . . . .   . . . . . . . .

2:15
Repeat x2           _______________   _______________   _______________
|-----------------|-----------------|-----------------|-----------------|
|-----------------|-----------------|-----------------|-----------------|
|-----4-4-2-2-----|-----------------|-9---------------|-----------------|
|-9-----------5-5-|-7---------------|-7---2-2-0-0-----|-5---------------|
|-7---------------|-5---------------|-------------3-3-|-3---------------|
|-----------------|-----------------|-----------------|-----------------|
    pm. . . . . .
  Your powers electrify me            Devour the one that's guilty
  Your prowess repels apathy          Your image can turn a soul to stone



CHORUS
2:27
|-----------------|-----------------|-----------------|-----------------|
|-----------------|-----------------|-----------------|-----------------|
|-----------------|-----------------|-----------------|-----------------|
|-9-9-9-9---------|-4-4-4-4-4-4-4-4-|-9-9-9-9---------|-5-5-5-5-5-5-5-5-|
|-7-7-7-7-5-5-5-5-|-2-2-2-2-2-2-2-2-|-7-7-7-7-5-5-5-5-|-3-3-3-3-3-3-3-3-|
|---------3-3-3-3-|-----------------|---------3-3-3-3-|-----------------|
                            Can't find another way              Can't find
the words to say                                     _____
__________________________
|-----------------|-----------------|-----------------|-----------------|
|-----------------|-----------------|-----------------|-----------------|
|-----------------|-----------------|-----------------|-----------------|
|-9-9-9-9---------|-4-4-4-4-4-4-4---|---2-------------|-----------------|
|-7-7-7-7-5-5-5-5-|-2-2-2-2-2-2-2-5-|---0-------------|-----------------|
|---------3-3-3-3-|---------------3-|-----------------|-----------------|

ENDING
2:38
Guitar 1
Repeat x4
|-----------------|-----------------|-----------------|-----------------|
|---------8-7-----|-----------------|---------8-7-----|10---------------|
|-7h9-----------9-|-7h9-------------|-7h9-----------9-|---9-------------|
|-----------------|-----------------|-----------------|-----------------|
|-----------------|-----------------|-----------------|-----------------|
|-----------------|-----------------|-----------------|-----------------|
Guitar 2
  _______________   _______________   _______________   _______________
|-----------------|-----------------|-----------------|-----------------|
|-----------------|-----------------|-----------------|-----------------|
|-----------------|-----------------|-----------------|-----------------|
|-----------------|-----------------|-7---------------|-5---------------|
|-2---------------|-5---------------|-5---------------|-3---------------|
|-0---------------|-3---------------|-----------------|-----------------|

        Can't find another way             Can't find the words to say
        Can't find another way             Can't find the words to say
        Can't find another way             Can't find the words to say

Guitar 2
  _______
|-----------------|
|-----------------|
|-----------------|
|-----------------|
|-2---------------|
|-0---------------|
            
Submit corrections

comments powered by Disqus
↑ Back to top | Paradise Lost Tabs for Once Solemn. Lyrics for acoustic guitar and electric guitar. 1 Tablatures and chords are parodies/interpretations of the original songs. You may use it for private study, scholarship, research or language learning purposes only