» » »

Paradise Lost, Once Solem Bass tabs (ver.1)

Artists:  A B C D E F G H I J K L M N O P Q R S T U V W X Y Z # 

Once Solem Bass tabs (ver.1)

Paradise Lost Tabs
 Rating:
4/5 (4 votes)
Once Solem lessons Tabs too difficult? Try these video lessons and learn fast
1
                drop d

G||--------------------------|--------------------------|
D||--------------------------|--------------------------|
A||--7--7--7--7--------------|--3--3--3--3--3--3--3--3--|
D||--------------5--5--5--5--|--------------------------|


                                                      
--------------------------|--------------------------|
--------------------------|--------------------------|
--7--7--7--7--------------|--5--5--5--5--5--5--5--5--|
--------------5--5--5--5--|--------------------------|


                                                                         
--------------------------|-------------------------|-------------------|
--------------------------|-------------------------|-------------------|
--7--7--7--7--------------|-------------------------|-------------------|
--------------5--5--5--5--|--3--3--3--3--3--3--5----|--0----------------|


                                                                  3x
|----------------------------------|------------------------------||
|*---------------------------------|-----------------------------*||
|*---------------------------------|----------------5--5--5-5-3--*||
|---0--0-0-0-0-0-0-0-0-0-0-0-0-0-0-|--3--3--3-3-3-3---------------||


                                                                            
------------------------|------------------------|------------------------||
*-----------------------|------------------------|-----------------------*||
*------------------7----|--7--7--3---------------|-----------------------*||
---5----5--5--3---------|-------------7----7--7--|--5----3----3--3--5-----||


                                                       
---------------------------|--------------------------|
*--------------------------|--------------------------|
*--------------------------|--------------------------|
---0--0--0--0--0--0--0--0--|--3--3--3--3--3--3--3--3--|


                                                        
--------------------------|---------------------------||
--------------------------|--------------------------*||
--5--5--5--5--5--5--5--5--|--3--3--3--3--3--3--3--3--*||
--------------------------|---------------------------||


                                                      
--------------------------|--------------------------|
--------------------------|--------------------------|
--7--7--7--7--------------|--3--3--3--3--3--3--3--3--|
--------------5--5--5--5--|--------------------------|


                                                      
--------------------------|--------------------------|
--------------------------|--------------------------|
--7--7--7--7--------------|--5--5--5--5--5--5--5--5--|
--------------5--5--5--5--|--------------------------|


                                                                         
--------------------------|-------------------------|-------------------|
--------------------------|-------------------------|-------------------|
--7--7--7--7--------------|-------------------------|-------------------|
--------------5--5--5--5--|--3--3--3--3--3--3--5----|--0----------------|


                                                                  3x
|----------------------------------|------------------------------||
|*---------------------------------|-----------------------------*||
|*---------------------------------|----------------5--5--5-5-3--*||
|---0--0-0-0-0-0-0-0-0-0-0-0-0-0-0-|--3--3--3-3-3-3---------------||


                                                                            
------------------------|------------------------|------------------------||
*-----------------------|------------------------|-----------------------*||
*------------------7----|--7--7--3---------------|-----------------------*||
---5----5--5--3---------|-------------7----7--7--|--5----3----3--3--5-----||


                                                       
---------------------------|--------------------------|
*--------------------------|--------------------------|
*--------------------------|--------------------------|
---0--0--0--0--0--0--0--0--|--3--3--3--3--3--3--3--3--|


                                                        
--------------------------|---------------------------||
--------------------------|--------------------------*||
--5--5--5--5--5--5--5--5--|--3--3--3--3--3--3--3--3--*||
--------------------------|---------------------------||


                                                      
--------------------------|--------------------------|
--------------------------|--------------------------|
--7--7--7--7--------------|--3--3--3--3--3--3--3--3--|
--------------5--5--5--5--|--------------------------|


                                                      
--------------------------|--------------------------|
--------------------------|--------------------------|
--7--7--7--7--------------|--5--5--5--5--5--5--5--5--|
--------------5--5--5--5--|--------------------------|


                                                                         
--------------------------|-------------------------|-------------------|
--------------------------|-------------------------|-------------------|
--7--7--7--7--------------|-------------------------|-------------------|
--------------5--5--5--5--|--3--3--3--3--3--3--5----|--0----------------|


                                                                  3x
|----------------------------------|------------------------------||
|*---------------------------------|-----------------------------*||
|*---------------------------------|----------------5--5--5-5-3--*||
|---0--0-0-0-0-0-0-0-0-0-0-0-0-0-0-|--3--3--3-3-3-3---------------||


                                                                            
------------------------|------------------------|------------------------||
*-----------------------|------------------------|-----------------------*||
*------------------7----|--7--7--3---------------|-----------------------*||
---5----5--5--3---------|-------------7----7--7--|--5----3----3--3--5-----||


                                                       
---------------------------|--------------------------|
*--------------------------|--------------------------|
*--------------------------|--------------------------|
---0--0--0--0--0--0--0--0--|--3--3--3--3--3--3--3--3--|


                                                        
--------------------------|---------------------------||
--------------------------|--------------------------*||
--5--5--5--5--5--5--5--5--|--3--3--3--3--3--3--3--3--*||
--------------------------|---------------------------||


                                                      
--------------------------|--------------------------|
--------------------------|--------------------------|
--7--7--7--7--------------|--3--3--3--3--3--3--3--3--|
--------------5--5--5--5--|--------------------------|


                                                      
--------------------------|--------------------------|
--------------------------|--------------------------|
--7--7--7--7--------------|--5--5--5--5--5--5--5--5--|
--------------5--5--5--5--|--------------------------|


                                                                         
--------------------------|-------------------------|-------------------|
--------------------------|-------------------------|-------------------|
--7--7--7--7--------------|-------------------------|-------------------|
--------------5--5--5--5--|--3--3--3--3--3--3--5----|--0----------------|


                                                            
|--------------------|------------------|------------------|
|*-------------------|------------------|------------------|
|*-------------------|------------------|------------------|
|---5----------------|------------------|------------------|


                                                             
-------------------||--------------------|------------------|
------------------*||*-------------------|------------------|
------------------*||*-------------------|------------------|
-------------------||---5----------------|------------------|


                                                                    
-------------------|-------------------||--------------------------|
-------------------|------------------*||--------------------------|
-------------------|------------------*||--7--7--7--7--------------|
--3----------------|-------------------||--------------5--5--5--5--|


                                                      
--------------------------|--------------------------|
--------------------------|--------------------------|
--3--3--3--3--3--3--3--3--|--7--7--7--7--------------|
--------------------------|--------------5--5--5--5--|


                                                                                
--------------------------|--------------------------|-------------------------|
--------------------------|--------------------------|-------------------------|
--5--5--5--5--5--5--5--5--|--7--7--7--7--------------|-------------------------|
--------------------------|--------------5--5--5--5--|--3--3--3--3--3--3--5----|


                                                              
-------------------||--------------------|-------------------|
-------------------||*-------------------|-------------------|
-------------------||*-------------------|-------------------|
--0----------------||---5----------------|--3----------------|


                                        3x                                 
-------------------|--------------------||--------------------|----------||
-------------------|-------------------*||--------------------|----------||
-------------------|-------------------*||--------------------|----------||
--5----------------|--3-----------------||--0----5------------|----------||
            
Submit corrections

comments powered by Disqus
↑ Back to top | Paradise Lost Bass for Once Solem. Lyrics for acoustic guitar and electric guitar. 1 Tablatures and chords are parodies/interpretations of the original songs. You may use it for private study, scholarship, research or language learning purposes only