» » »

Paradise Lost, No Reason Bass tabs (ver.1)

Artists:  A B C D E F G H I J K L M N O P Q R S T U V W X Y Z # 

No Reason Bass tabs (ver.1)

Paradise Lost Tabs
 Rating:
4/5 (4 votes)
No Reason lessons Tabs too difficult? Try these video lessons and learn fast
                tune down

F#||----------------------||--------------------------------|
C#||--------------2-------||*-------------------------------|
G#||----------------5-0---||*---------------5-7-7-7-5-7-7-7-|
C#||--------------------5-||---2--2--2--2-2-----------------|


                                3x                                
--------------------------------||-------------------------------|
-------------------------------*||-------------------------------|
-------------------------------*||---------------5-7-7-7-5-7-7-7-|
--5--5--5--5-5-5-7-7-7-7-5-5-5--||--2--2--2--2-2-----------------|


                                                                
-------------------------------|-------------------------------|
-------------------------------|-------------------------------|
-------------------------------|---------------5-7-7-7-5-7-7-7-|
--5--5--5--5-5-5-7-7-7-7-5-5-5-|--2--2--2--2-2-----------------|


                                                           
-------------------------------||-------------------------|
-------------------------------||*------------------------|
-------------------------------||*--2--2--2---------------|
--5--5--5--5-5-5-7-7-7-7-5-5-5-||---------------0-0--0----|


                                                        
-----------------------------||------------------------|
----------------------------*||------------------------|
----------------------------*||--2--2--2---------------|
--2--2--2--0-2--0-2--0-2-0---||--------------0-0--0----|


                                                        
----------------------------|--------------------------|
----------------------------|--------------------------|
----------------------------|--4--4--4--4--------------|
--2--2--2--0-2--0-2--0-2-0--|---------------2-2--2--2--|


                                                       
---------------------------|--------------------------|
---------------------------|--------------------------|
---------------------------|--4--4--4--4--------------|
--4--4--4--2-4--2-4--6--2--|---------------2-2--2--2--|


                                                       
---------------------------|--------------------------|
---------------------------|--------------------------|
---------------------------|--4--4--4--4--------------|
--4--4--4--2-4--2-4--6--2--|---------------2-2--2--2--|


                                                       
---------------------------|--------------------------|
---------------------------|--------------------------|
---------------------------|--4----4--4--4-2-2--2--2--|
--4--4--4--2-4--2-4--6--2--|--------------------------|


                                                      
--------------------------|--------------------------|
--------------------------|--------------------------|
--0----0--0--0-2-2--2--2--|--4----4--4--4-2-2--2--2--|
--------------------------|--------------------------|


                            
--------------------------||
--------------------------||
--0----0--0--0-2-2--2--2--||
--------------------------||
            
Submit corrections

comments powered by Disqus
↑ Back to top | Paradise Lost Bass for No Reason. Lyrics for acoustic guitar and electric guitar. Tablatures and chords are parodies/interpretations of the original songs. You may use it for private study, scholarship, research or language learning purposes only