» » »

Paradise Lost, No Forgiveness Tabs (ver.2)

Artists:  A B C D E F G H I J K L M N O P Q R S T U V W X Y Z # 

No Forgiveness Tabs (ver.2)

Paradise Lost Tabs
Rating:
0/5 (0 votes)
No Forgiveness lessons Tabs too difficult? Try these video lessons and learn fast
                (Intro)
Paradise Lost
    No Forgiveness (acoustic intro)
 

  Tune down one step 

 D5|-----------------------------------------------------------------------|
 A4|-----------------------------------------------------------------------|
 F4|-------0----0-----------0-----0-------------0-----0------------0-------|
 C4|----2----2----2------2-----2-----2-------2-----2-----2------2-----2----|
 G3|-5----------------3-------------------2------------------0-------------|
 D3|-----------------------------------------------------------------------|

 D5|----------------------------------------0-------------------|
 A4|-------------------------------------0-----0-----0----------|
 F4|--------------0-------------------0-----------0-------------|
 C4|-----2-----2-----2-----2-------2----------------------------|
 G3|--0---------------------------------------------------------|
 D3|--------3-----------3------0------------------3-------0-----|

                               |Not sure about this|
 D5|-----------0--------0------3p1-0------0--------0-------------1---------|
 A4|--------3-----3--------0-----------------3----------------1-----1------|
 F4|-----2-----------2-----------------2--------2----------2---------------|
 C4|--0-------------------------------------------------3------------------|
 G3|-----------------------------------------------------------------------|
 D3|-----------------------------------------------------------------------|

 D5|--3--------------------------------------0--------0-----3p1-0--0-------|
 A4|-----1--------------------------------3-----3--------0------------3----|
 F4|--------2------2-----2-------------2-----------2---------------------2-|
 C4|-------------2-----3------------0--------------------------------------|
 G3|-----------0-----2------0h2h3------------------------------------------|
 D3|-----------------------------------------------------------------------|

 D5|--0------------1------3---------------------------------------1--------|
 A4|------------1-----1------1---------------------------------1-----1-----|
 F4|---------2------------------2------2------2-------------2-----------2--|
 C4|------3--------------------------2------3------------3-----------------|
 G3|-------------------------------0------2------0h2h3---------------------|
 D3|-----------------------------------------------------------------------|

 D5|--1------3--------1-------0--------------------------------------------|
 A4|-----1------1--------1-------1------------1--------1-0--------0--------|
 F4|---------------2--------2--------0-----0-----0-------------0-----0-----|
 C4|------------------------------------2-----------2-------2-----------2--|
 G3|---------------------------------3-------------------------------------|
 D3|-----------------------------------------------------------------------|

 D5|----------------1--------1-----3-------1-------0-----------------------|
 A4|-------------0-----0--------1-----1-------1-------1------------1-------|
 F4|----------2-----------2--------------2-------2--------0-----0-----0----|
 C4|-------3-------------------------------------------------2-----------2-|
 G3|--0-2-------------------------------------------------3----------------|
 D3|-----------------------------------------------------------------------|
 
 D5|------------------------------|
 A4|--1-0--------0-0-----0--------|
 F4|----------0-------0-----0-----|
 C4|-------2----------------------|
 G3|------------------------------|
 D3|------------------------------|

 D5|-----------------------------------------------------------------------|
 A4|-----------------------------------------------------------------------|
 F4|---------0-----0-----------0-----0-----------0-----0------------0------|
 C4|------2-----2-----2-----2-----2-----2-----2-----2-----2------2-----2---|
 G3|---5-----------------3-----------------2------------------0------------|
 D3|-----------------------------------------------------------------------|

 D5|--------------------------------------0---------------0----------------|
 A4|-----------------------------------0-----0-----0-------0---------------|
 F4|--------------0-----------------0-----------0-----------0--------------|
 C4|-----2-----2-----2-----2-----2---------------------------2-------------|
 G3|--0-------------------------------------------------------0------------|
 D3|--------3-----------3-----0-----------------3--------------0-----------|

   It's not 100% correct but can give you an idea.
            

comments powered by Disqus
↑ Back to top | Paradise Lost Tabs for No Forgiveness. Lyrics for acoustic guitar and electric guitar. Tablatures and chords are parodies/interpretations of the original songs. You may use it for private study, scholarship, research or language learning purposes only