» » »

Paradise Lost, Look At Me Now Tabs (ver.1)

Artists:  A B C D E F G H I J K L M N O P Q R S T U V W X Y Z # 

Look At Me Now Tabs (ver.1)

Paradise Lost Tabs
 Rating:
4/5 (4 votes)
Look At Me Now lessons Tabs too difficult? Try these video lessons and learn fast
                Tuning (DAdGBE)

Distortion on the chords but the other parts im not sure are even guitar.


t=trill
^=bend
v=vibrato
P.M=palm mute
/=slide up
\=slide down


Verse (guitar 1)
E|-------------------------------------|
B|-12v/12/13/14/15-16-14-13------------|
G|-------------------------14v--13v-17-|
d|-------------------------------------|
A|-------------------------------------|
D|-------------------------------------|
^^^^^^
Im not sure wheither this is synth or guitar alot of believe in nothing sounds synth though.


Verse (guitar 2)
E|-------|
B|-------|
G|-------|
d|-5-5-3-|
A|-5-5-3-|
D|-3-3-1-|


Chorus
E|-----------------------------------|
B|-----------------------------------|
G|-----------------------------------|
d|-7-7-7-7-6-6-6-6-5-5-5-5-3-3-3-3---|
A|-7-7-7-7-6-6-6-6-5-5-5-5-3-3-3-3---|
D|-5-5-5-5-4-4-4-4-3-3-3-3-1-1-1-1---|


Interlude
E|---------------|
B|---------------|
G|---------------|
d|-7--6--5--3----|
A|-7--6--5--3----|
D|-5--4--3--1----|


Interlude building up to Outro
E|-----------------|
B|-----------------|
G|-----------------|
d|-3-3-3-3-3-3-3-3-|
A|-3-3-3-3-3-3-3-3-|
D|-1-1-1-1-1-1-1-1-|
P.M________________>




Outro

                     \/\/bend these 2 up rather quick but dont release them.
E|-12-14-15-12-15-12-------------|
B|------------------12^12^-12tv--|
G|-------------------------------|
d|-------------------------------|
A|-------------------------------|
D|-------------------------------|
            
Submit corrections

comments powered by Disqus
↑ Back to top | Paradise Lost Tabs for Look At Me Now. Lyrics for acoustic guitar and electric guitar. Tablatures and chords are parodies/interpretations of the original songs. You may use it for private study, scholarship, research or language learning purposes only