>
 >
Look At Me Now

Look At Me Now Bass Tabs

Paradise Lost - Look At Me Now chords, tabs, tablatures, lyrics

Guitar lessons | Add/correct | Request | Top 50 tabs Artists:  A B C D E F G H I J K L M N O P Q R S T U V W X Y Z 0-9

Look At Me Now Bass Tabs – Paradise Lost

CD, Sheet music, Poster

Do you like Look At Me Now? Share with your friends now
Bass TabsTabs
tuning:
Standard 5 string:BEADG
4 string:CGCF ( open tuning D+ drop c!)
fx then...
Main riff
g----------------------------------------------------------------------
d----------------------------------------------------------------------
a-3-3-3-3-3-3-3-3-6-6-6-6-6-6-6-6--------------------------------------
e---------------------------------4-4-4-4-4-4-4-4-6-6-6-6-6-6-6-6------
b----------------------------------------------------------------------
    C			Eb		G#	    A#

0:16: 

g---------------------------
d---------------------------
a--------------------------- bass fx (flanger/disto?)
e---------------------------
b-1-1--1-1-1--1-1-1--1-1-1--I end main riff
	c

Verse 1:
0:20
repeat main riff x2


Chorus:0:47
so look at me now.........

g-------------------------------------
d-------------------------------------
a------------------------------------- repeat x4
e-3-3-3-2-2-2-1-1-1-------------------
b-------------------4-4-4-------------
   G     F#    F     D#


verse 2:
1:07
repeat main riff x2
1:36
repeat chorus x 7-8

2:08
break...



2:24

g----------------------------------------------
d----------------------------------------------
a--3-----6-----------------3-----6-------------
e--------------4-----6-----------------4-----6-
b----------------------------------------------
Ilet ring


2:40

g------------------
d------------------
a--3-3-3-3-3-3-3-3-
e------------------
b------------------

2:42
repeat chorus 

3:17

g---------------------------
d---------------------------
a--------------------------- bass fx (flanger/disto?)
e---------------------------
b-1-1--1-1-1--1-1-1--1-1-1--I 
	c	

repeat it  (add some variation like e--/9...) until the end



some corrections can be done at the end!!!!
(if you want a rare live of PL!!!!)





Comments


Popular Paradise Lost tabs & chords
Something Real Chords
Embers Fire Tabs
Enchantment Tabs
Eternal 1 Tabs
Hallowed Land Tabs
Once Solemn Tabs
Once Solomn Tabs
Once Solomn 1 Tabs
Remebrance Tabs
Shades Of God Tabs


Song lyrics



↑ Back to top | Tablatures and chords are parodies/interpretations of the original songs. You may use it for private study, scholarship, research or language learning purposes only
© 2014 AZChords.com Contact us | Privacy policy | DMCA | Add/correct tabs | Request tabs | Top 50 tabs